  0
SECTION
  2
HEADER
  9
$ACADVER
  1
AC1015
  9
$ACADMAINTVER
 70
    20
  9
$DWGCODEPAGE
  3
ANSI_932
  9
$INSBASE
 10
0.0
 20
0.0
 30
0.0
  9
$EXTMIN
 10
420.7778542691985
 20
309.7118160522746
 30
-0.0000000349181948
  9
$EXTMAX
 10
2384.929402515456
 20
1488.87939535525
 30
0.0000000814935746
  9
$LIMMIN
 10
0.0
 20
0.0
  9
$LIMMAX
 10
841.0
 20
594.0
  9
$ORTHOMODE
 70
     0
  9
$REGENMODE
 70
     1
  9
$FILLMODE
 70
     1
  9
$QTEXTMODE
 70
     0
  9
$MIRRTEXT
 70
     1
  9
$LTSCALE
 40
1.0
  9
$ATTMODE
 70
     1
  9
$TEXTSIZE
 40
0.0
  9
$TRACEWID
 40
0.05
  9
$TEXTSTYLE
  7
STANDARD
  9
$CLAYER
  8
0
  9
$CELTYPE
  6
CONTINUOUS
  9
$CECOLOR
 62
   256
  9
$CELTSCALE
 40
1.0
  9
$DISPSILH
 70
     0
  9
$DIMSCALE
 40
1.0
  9
$DIMASZ
 40
0.18
  9
$DIMEXO
 40
0.0625
  9
$DIMDLI
 40
0.38
  9
$DIMRND
 40
0.0
  9
$DIMDLE
 40
0.0
  9
$DIMEXE
 40
0.18
  9
$DIMTP
 40
0.0
  9
$DIMTM
 40
0.0
  9
$DIMTXT
 40
0.18
  9
$DIMCEN
 40
0.09
  9
$DIMTSZ
 40
0.0
  9
$DIMTOL
 70
     0
  9
$DIMLIM
 70
     0
  9
$DIMTIH
 70
     1
  9
$DIMTOH
 70
     1
  9
$DIMSE1
 70
     0
  9
$DIMSE2
 70
     0
  9
$DIMTAD
 70
     0
  9
$DIMZIN
 70
     0
  9
$DIMBLK
  1

  9
$DIMASO
 70
     1
  9
$DIMSHO
 70
     1
  9
$DIMPOST
  1

  9
$DIMAPOST
  1

  9
$DIMALT
 70
     0
  9
$DIMALTD
 70
     2
  9
$DIMALTF
 40
25.4
  9
$DIMLFAC
 40
1.0
  9
$DIMTOFL
 70
     0
  9
$DIMTVP
 40
0.0
  9
$DIMTIX
 70
     0
  9
$DIMSOXD
 70
     0
  9
$DIMSAH
 70
     0
  9
$DIMBLK1
  1

  9
$DIMBLK2
  1

  9
$DIMSTYLE
  2
STANDARD
  9
$DIMCLRD
 70
     0
  9
$DIMCLRE
 70
     0
  9
$DIMCLRT
 70
     0
  9
$DIMTFAC
 40
1.0
  9
$DIMGAP
 40
0.09
  9
$DIMJUST
 70
     0
  9
$DIMSD1
 70
     0
  9
$DIMSD2
 70
     0
  9
$DIMTOLJ
 70
     1
  9
$DIMTZIN
 70
     0
  9
$DIMALTZ
 70
     0
  9
$DIMALTTZ
 70
     0
  9
$DIMUPT
 70
     0
  9
$DIMDEC
 70
     4
  9
$DIMTDEC
 70
     4
  9
$DIMALTU
 70
     2
  9
$DIMALTTD
 70
     2
  9
$DIMTXSTY
  7
STANDARD
  9
$DIMAUNIT
 70
     0
  9
$DIMADEC
 70
     0
  9
$DIMALTRND
 40
0.0
  9
$DIMAZIN
 70
     0
  9
$DIMDSEP
 70
    46
  9
$DIMATFIT
 70
     3
  9
$DIMFRAC
 70
     0
  9
$DIMLDRBLK
  1

  9
$DIMLUNIT
 70
     2
  9
$DIMLWD
 70
    -2
  9
$DIMLWE
 70
    -2
  9
$DIMTMOVE
 70
     0
  9
$LUNITS
 70
     2
  9
$LUPREC
 70
     4
  9
$SKETCHINC
 40
0.1
  9
$FILLETRAD
 40
0.0
  9
$AUNITS
 70
     0
  9
$AUPREC
 70
     0
  9
$MENU
  1
acad
  9
$ELEVATION
 40
0.0
  9
$PELEVATION
 40
0.0
  9
$THICKNESS
 40
0.0
  9
$LIMCHECK
 70
     0
  9
$CHAMFERA
 40
0.0
  9
$CHAMFERB
 40
0.0
  9
$CHAMFERC
 40
0.0
  9
$CHAMFERD
 40
0.0
  9
$SKPOLY
 70
     0
  9
$TDCREATE
 40
2453282.529856597
  9
$TDUCREATE
 40
2453282.154856597
  9
$TDUPDATE
 40
2453307.531532709
  9
$TDUUPDATE
 40
2453307.156532709
  9
$TDINDWG
 40
0.0649356250
  9
$TDUSRTIMER
 40
0.0649356250
  9
$USRTIMER
 70
     1
  9
$ANGBASE
 50
0.0
  9
$ANGDIR
 70
     0
  9
$PDMODE
 70
     0
  9
$PDSIZE
 40
0.0
  9
$PLINEWID
 40
0.0
  9
$SPLFRAME
 70
     0
  9
$SPLINETYPE
 70
     6
  9
$SPLINESEGS
 70
     8
  9
$HANDSEED
  5
6DA
  9
$SURFTAB1
 70
     6
  9
$SURFTAB2
 70
     6
  9
$SURFTYPE
 70
     6
  9
$SURFU
 70
     6
  9
$SURFV
 70
     6
  9
$UCSBASE
  2

  9
$UCSNAME
  2

  9
$UCSORG
 10
0.0
 20
0.0
 30
0.0
  9
$UCSXDIR
 10
1.0
 20
0.0
 30
0.0
  9
$UCSYDIR
 10
0.0
 20
1.0
 30
0.0
  9
$UCSORTHOREF
  2

  9
$UCSORTHOVIEW
 70
     0
  9
$UCSORGTOP
 10
0.0
 20
0.0
 30
0.0
  9
$UCSORGBOTTOM
 10
0.0
 20
0.0
 30
0.0
  9
$UCSORGLEFT
 10
0.0
 20
0.0
 30
0.0
  9
$UCSORGRIGHT
 10
0.0
 20
0.0
 30
0.0
  9
$UCSORGFRONT
 10
0.0
 20
0.0
 30
0.0
  9
$UCSORGBACK
 10
0.0
 20
0.0
 30
0.0
  9
$PUCSBASE
  2

  9
$PUCSNAME
  2

  9
$PUCSORG
 10
0.0
 20
0.0
 30
0.0
  9
$PUCSXDIR
 10
1.0
 20
0.0
 30
0.0
  9
$PUCSYDIR
 10
0.0
 20
1.0
 30
0.0
  9
$PUCSORTHOREF
  2

  9
$PUCSORTHOVIEW
 70
     0
  9
$PUCSORGTOP
 10
0.0
 20
0.0
 30
0.0
  9
$PUCSORGBOTTOM
 10
0.0
 20
0.0
 30
0.0
  9
$PUCSORGLEFT
 10
0.0
 20
0.0
 30
0.0
  9
$PUCSORGRIGHT
 10
0.0
 20
0.0
 30
0.0
  9
$PUCSORGFRONT
 10
0.0
 20
0.0
 30
0.0
  9
$PUCSORGBACK
 10
0.0
 20
0.0
 30
0.0
  9
$USERI1
 70
     0
  9
$USERI2
 70
     0
  9
$USERI3
 70
     0
  9
$USERI4
 70
     0
  9
$USERI5
 70
     0
  9
$USERR1
 40
0.0
  9
$USERR2
 40
0.0
  9
$USERR3
 40
0.0
  9
$USERR4
 40
0.0
  9
$USERR5
 40
0.0
  9
$WORLDVIEW
 70
     1
  9
$SHADEDGE
 70
     3
  9
$SHADEDIF
 70
    70
  9
$TILEMODE
 70
     1
  9
$MAXACTVP
 70
    16
  9
$PINSBASE
 10
0.0
 20
0.0
 30
0.0
  9
$PLIMCHECK
 70
     0
  9
$PEXTMIN
 10
1.000000000000000E+20
 20
1.000000000000000E+20
 30
1.000000000000000E+20
  9
$PEXTMAX
 10
-1.000000000000000E+20
 20
-1.000000000000000E+20
 30
-1.000000000000000E+20
  9
$PLIMMIN
 10
0.0
 20
0.0
  9
$PLIMMAX
 10
12.0
 20
9.0
  9
$UNITMODE
 70
     0
  9
$VISRETAIN
 70
     0
  9
$PLINEGEN
 70
     1
  9
$PSLTSCALE
 70
     0
  9
$TREEDEPTH
 70
  3020
  9
$CMLSTYLE
  2
STANDARD
  9
$CMLJUST
 70
     0
  9
$CMLSCALE
 40
1.0
  9
$PROXYGRAPHICS
 70
     1
  9
$MEASUREMENT
 70
     0
  9
$CELWEIGHT
370
    -1
  9
$ENDCAPS
280
     0
  9
$JOINSTYLE
280
     0
  9
$LWDISPLAY
290
     0
  9
$INSUNITS
 70
     0
  9
$HYPERLINKBASE
  1

  9
$STYLESHEET
  1
設計1-100-mono.ctb
  9
$XEDIT
290
     1
  9
$CEPSNTYPE
380
     0
  9
$PSTYLEMODE
290
     1
  9
$FINGERPRINTGUID
  2
{63965252-6C0C-4DC1-B8C5-56ABAD581941}
  9
$VERSIONGUID
  2
{4569FBCE-3AD0-4AFD-8A16-168FE0EF038A}
  9
$EXTNAMES
290
     1
  9
$PSVPSCALE
 40
0.0
  9
$OLESTARTUP
290
     0
  0
ENDSEC
  0
SECTION
  2
CLASSES
  0
CLASS
  1
IMAGE
  2
AcDbRasterImage
  3
ISM
 90
    32895
280
     0
281
     1
  0
CLASS
  1
DICTIONARYVAR
  2
AcDbDictionaryVar
  3
ObjectDBX Classes
 90
        0
280
     0
281
     0
  0
CLASS
  1
RASTERVARIABLES
  2
AcDbRasterVariables
  3
ISM
 90
    32768
280
     0
281
     0
  0
CLASS
  1
IMAGEDEF
  2
AcDbRasterImageDef
  3
ISM
 90
    32768
280
     0
281
     0
  0
CLASS
  1
IMAGEDEF_REACTOR
  2
AcDbRasterImageDefReactor
  3
ISM
 90
    32769
280
     0
281
     0
  0
CLASS
  1
IDBUFFER
  2
AcDbIdBuffer
  3
ObjectDBX Classes
 90
    32768
280
     0
281
     0
  0
CLASS
  1
SPATIAL_FILTER
  2
AcDbSpatialFilter
  3
ObjectDBX Classes
 90
    32768
280
     0
281
     0
  0
CLASS
  1
SORTENTSTABLE
  2
AcDbSortentsTable
  3
ObjectDBX Classes
 90
    32768
280
     0
281
     0
  0
CLASS
  1
LAYER_INDEX
  2
AcDbLayerIndex
  3
ObjectDBX Classes
 90
    32768
280
     0
281
     0
  0
CLASS
  1
SPATIAL_INDEX
  2
AcDbSpatialIndex
  3
ObjectDBX Classes
 90
    32768
280
     0
281
     0
  0
CLASS
  1
OBJECT_PTR
  2
CAseDLPNTableRecord
  3
ASE-LPNTableRecord
 90
    32769
280
     0
281
     0
  0
CLASS
  1
LAYOUT
  2
AcDbLayout
  3
ObjectDBX Classes
 90
        0
280
     0
281
     0
  0
CLASS
  1
PLOTSETTINGS
  2
AcDbPlotSettings
  3
ObjectDBX Classes
 90
    32768
280
     0
281
     0
  0
CLASS
  1
ACDBDICTIONARYWDFLT
  2
AcDbDictionaryWithDefault
  3
ObjectDBX Classes
 90
        0
280
     0
281
     0
  0
CLASS
  1
ACDBPLACEHOLDER
  2
AcDbPlaceHolder
  3
ObjectDBX Classes
 90
        0
280
     0
281
     0
  0
CLASS
  1
VBA_PROJECT
  2
AcDbVbaProject
  3
acad
 90
    32768
280
     0
281
     0
  0
CLASS
  1
WIPEOUT
  2
AcDbWipeout
  3
"WipeOut|Product Desc: Object Enabler for WipeOut entity^I^I^I^I^I^I|Company: Autodesk, Inc.^I^I^I^I^I^I|WEB Address: www.autodesk.com"
 90
    32895
280
     0
281
     1
  0
CLASS
  1
WIPEOUTVARIABLES
  2
AcDbWipeoutVariables
  3
"WipeOut|Product Desc:     WipeOut Dbx Application|Company:          Autodesk, Inc.|WEB Address:      www.autodesk.com"
 90
    32768
280
     0
281
     0
  0
CLASS
  1
RTEXT
  2
RText
  3
RText|AutoCAD Express Tool|expresstools@autodesk.com
 90
    32768
280
     0
281
     1
  0
CLASS
  1
ARCALIGNEDTEXT
  2
AcDbArcAlignedText
  3
ATEXT|AutoCAD Express Tool|expresstools@autodesk.com
 90
    32768
280
     0
281
     1
  0
ENDSEC
  0
SECTION
  2
TABLES
  0
TABLE
  2
VPORT
  5
7
330
0
100
AcDbSymbolTable
 70
     6
  0
VPORT
  5
6D2
330
7
100
AcDbSymbolTableRecord
100
AcDbViewportTableRecord
  2
*Active
 70
     0
 10
0.0
 20
0.0
 11
1.0
 21
1.0
 12
1402.838715389556
 22
899.3069001169287
 13
0.0
 23
0.0
 14
1.0
 24
1.0
 15
0.0
 25
0.0
 16
0.0
 26
0.0
 36
1.0
 17
0.0
 27
0.0
 37
0.0
 40
1793.754737612353
 41
1.277707006369426
 42
50.0
 43
0.0
 44
0.0
 50
0.0
 51
0.0
 71
     0
 72
   100
 73
     1
 74
     1
 75
     0
 76
     0
 77
     0
 78
     0
281
     0
 65
     1
110
0.0
120
0.0
130
0.0
111
1.0
121
0.0
131
0.0
112
0.0
122
1.0
132
0.0
 79
     0
146
0.0
  0
ENDTAB
  0
TABLE
  2
LTYPE
  5
4
330
0
100
AcDbSymbolTable
 70
     5
  0
LTYPE
  5
11
330
4
100
AcDbSymbolTableRecord
100
AcDbLinetypeTableRecord
  2
BYBLOCK
 70
     0
  3

 72
    65
 73
     0
 40
0.0
  0
LTYPE
  5
12
330
4
100
AcDbSymbolTableRecord
100
AcDbLinetypeTableRecord
  2
BYLAYER
 70
     0
  3

 72
    65
 73
     0
 40
0.0
  0
LTYPE
  5
13
330
4
100
AcDbSymbolTableRecord
100
AcDbLinetypeTableRecord
  2
CONTINUOUS
 70
     0
  3
実線
 72
    65
 73
     0
 40
0.0
  0
LTYPE
  5
1D
330
4
100
AcDbSymbolTableRecord
100
AcDbLinetypeTableRecord
  2
DASHED
 70
     0
  3
破線
 72
    65
 73
     2
 40
3.799999999999999
 49
3.0
 74
     0
 49
-0.8
 74
     0
  0
LTYPE
  5
1E
330
4
100
AcDbSymbolTableRecord
100
AcDbLinetypeTableRecord
  2
DOT
 70
     0
  3
点線
 72
    65
 73
     2
 40
2.0
 49
1.0
 74
     0
 49
-1.0
 74
     0
  0
LTYPE
  5
1F
330
4
100
AcDbSymbolTableRecord
100
AcDbLinetypeTableRecord
  2
DASHDOT
 70
     0
  3
一点鎖線
 72
    65
 73
     4
 40
25.6
 49
20.0
 74
     0
 49
-2.0
 74
     0
 49
1.6
 74
     0
 49
-2.0
 74
     0
  0
LTYPE
  5
20
330
4
100
AcDbSymbolTableRecord
100
AcDbLinetypeTableRecord
  2
DIVIDE
 70
     0
  3
二点鎖線
 72
    65
 73
     6
 40
31.2
 49
20.0
 74
     0
 49
-2.399999999999999
 74
     0
 49
2.0
 74
     0
 49
-2.399999999999999
 74
     0
 49
2.0
 74
     0
 49
-2.399999999999999
 74
     0
  0
ENDTAB
  0
TABLE
  2
LAYER
  5
2
330
0
100
AcDbSymbolTable
 70
     2
  0
LAYER
  5
14
330
2
100
AcDbSymbolTableRecord
100
AcDbLayerTableRecord
  2
0
 70
     0
 62
     7
  6
CONTINUOUS
370
    -3
390
686
  0
ENDTAB
  0
TABLE
  2
STYLE
  5
3
330
0
100
AcDbSymbolTable
 70
     1
  0
STYLE
  5
17
330
3
100
AcDbSymbolTableRecord
100
AcDbTextStyleTableRecord
  2
STANDARD
 70
     0
 40
0.0
 41
1.0
 50
0.0
 71
     0
 42
0.0
  3
simplex.shx
  4
bigfont.shx
  0
ENDTAB
  0
TABLE
  2
VIEW
  5
5
330
0
100
AcDbSymbolTable
 70
     0
  0
ENDTAB
  0
TABLE
  2
UCS
  5
6
330
0
100
AcDbSymbolTable
 70
     0
  0
ENDTAB
  0
TABLE
  2
APPID
  5
8
330
0
100
AcDbSymbolTable
 70
     2
  0
APPID
  5
16
330
8
100
AcDbSymbolTableRecord
100
AcDbRegAppTableRecord
  2
ACAD
 70
     0
  0
APPID
  5
694
330
8
100
AcDbSymbolTableRecord
100
AcDbRegAppTableRecord
  2
DCO15
 70
     0
  0
ENDTAB
  0
TABLE
  2
DIMSTYLE
  5
9
330
0
100
AcDbSymbolTable
 70
     1
100
AcDbDimStyleTable
 71
     0
  0
DIMSTYLE
105
18
330
9
100
AcDbSymbolTableRecord
100
AcDbDimStyleTableRecord
  2
STANDARD
 70
     0
340
17
  0
ENDTAB
  0
TABLE
  2
BLOCK_RECORD
  5
1
330
0
100
AcDbSymbolTable
 70
     0
  0
BLOCK_RECORD
  5
A
330
1
100
AcDbSymbolTableRecord
100
AcDbBlockTableRecord
  2
*MODEL_SPACE
340
68B
  0
BLOCK_RECORD
  5
B
330
1
100
AcDbSymbolTableRecord
100
AcDbBlockTableRecord
  2
*PAPER_SPACE
340
68C
  0
ENDTAB
  0
ENDSEC
  0
SECTION
  2
BLOCKS
  0
BLOCK
  5
D
330
A
100
AcDbEntity
  8
0
100
AcDbBlockBegin
  2
*MODEL_SPACE
 70
     0
 10
0.0
 20
0.0
 30
0.0
  3
*MODEL_SPACE
  1

  0
ENDBLK
  5
E
330
A
100
AcDbEntity
  8
0
100
AcDbBlockEnd
  0
BLOCK
  5
F
330
B
100
AcDbEntity
 67
     1
  8
0
100
AcDbBlockBegin
  2
*PAPER_SPACE
 70
     0
 10
0.0
 20
0.0
 30
0.0
  3
*PAPER_SPACE
  1

  0
ENDBLK
  5
10
330
B
100
AcDbEntity
 67
     1
  8
0
100
AcDbBlockEnd
  0
ENDSEC
  0
SECTION
  2
ENTITIES
  0
TEXT
  5
55
330
A
100
AcDbEntity
  8
0
  6
Continuous
100
AcDbText
 10
515.7908160576125
 20
719.5656957838279
 30
0.0
 40
15.0
  1
吊りボルト　３/８Ｗ
100
AcDbText
  0
LEADER
  5
56
330
A
100
AcDbEntity
  8
0
  6
Continuous
100
AcDbLeader
  3
STANDARD
 76
     3
 10
710.78342
 20
686.7999999999999
 30
0.0
 10
693.2897759999999
 20
717.0998799999999
 30
0.0
 10
508.5365304034194
 20
717.0998799999999
 30
0.0
1001
ACAD
1000
DSTYLE
1002
{
1070
    41
1040
6.0
1070
     5
1000
_EX_NORM
1070
     6
1000
_EX_NORM
1070
     7
1000
_EX_NORM
1002
}
  0
LINE
  5
57
330
A
100
AcDbEntity
  8
0
  6
Continuous
100
AcDbLine
 10
490.0
 20
881.930301
 30
0.0
 11
490.0
 21
832.0
 31
0.0
  0
LINE
  5
58
330
A
100
AcDbEntity
  8
0
  6
Continuous
100
AcDbLine
 10
1589.99999
 20
881.930301
 30
0.0
 11
1589.99999
 21
832.0
 31
0.0
  0
TEXT
  5
59
330
A
100
AcDbEntity
  8
0
  6
Continuous
100
AcDbText
 10
1033.999995
 20
833.7489285381542
 30
0.0
 40
15.0
  1
Ｌ
100
AcDbText
  0
LINE
  5
5A
330
A
100
AcDbEntity
  8
0
  6
Continuous
100
AcDbLine
 10
490.0
 20
832.0
 30
0.0
 11
1589.99999
 21
832.0
 31
0.0
  0
CIRCLE
  5
5B
330
A
100
AcDbEntity
  8
0
  6
Continuous
100
AcDbCircle
 10
490.0
 20
832.0
 30
0.0
 40
1.5
  0
CIRCLE
  5
5C
330
A
100
AcDbEntity
  8
0
  6
Continuous
100
AcDbCircle
 10
490.0
 20
832.0
 30
0.0
 40
0.75
  0
CIRCLE
  5
5D
330
A
100
AcDbEntity
  8
0
  6
Continuous
100
AcDbCircle
 10
1589.99999
 20
832.0
 30
0.0
 40
1.5
  0
CIRCLE
  5
5E
330
A
100
AcDbEntity
  8
0
  6
Continuous
100
AcDbCircle
 10
1589.99999
 20
832.0
 30
0.0
 40
0.75
  0
LINE
  5
5F
330
A
100
AcDbEntity
  8
0
  6
Continuous
100
AcDbLine
 10
485.5
 20
886.430301
 30
0.0
 11
449.0
 21
886.430301
 31
0.0
  0
LINE
  5
60
330
A
100
AcDbEntity
  8
0
  6
Continuous
100
AcDbLine
 10
485.5
 20
1437.430301
 30
0.0
 11
449.0
 21
1437.430301
 31
0.0
  0
TEXT
  5
61
330
A
100
AcDbEntity
  8
0
  6
Continuous
100
AcDbText
 10
446.4474830545698
 20
1155.930301
 30
0.0
 40
15.0
  1
Ｗ
 50
90.0
100
AcDbText
  0
LINE
  5
62
330
A
100
AcDbEntity
  8
0
  6
Continuous
100
AcDbLine
 10
449.0
 20
886.430301
 30
0.0
 11
449.0
 21
1437.430301
 31
0.0
  0
CIRCLE
  5
63
330
A
100
AcDbEntity
  8
0
  6
Continuous
100
AcDbCircle
 10
449.0
 20
886.430301
 30
0.0
 40
1.5
  0
CIRCLE
  5
64
330
A
100
AcDbEntity
  8
0
  6
Continuous
100
AcDbCircle
 10
449.0
 20
886.430301
 30
0.0
 40
0.75
  0
CIRCLE
  5
65
330
A
100
AcDbEntity
  8
0
  6
Continuous
100
AcDbCircle
 10
449.0
 20
1437.430301
 30
0.0
 40
1.5
  0
CIRCLE
  5
66
330
A
100
AcDbEntity
  8
0
  6
Continuous
100
AcDbCircle
 10
449.0
 20
1437.430301
 30
0.0
 40
0.75
  0
LINE
  5
67
330
A
100
AcDbEntity
  8
0
  6
Continuous
100
AcDbLine
 10
489.5
 20
454.199319
 30
0.0
 11
489.5
 21
414.0
 31
0.0
  0
LINE
  5
68
330
A
100
AcDbEntity
  8
0
  6
Continuous
100
AcDbLine
 10
1590.49999
 20
454.199319
 30
0.0
 11
1590.49999
 21
414.0
 31
0.0
  0
TEXT
  5
69
330
A
100
AcDbEntity
  8
0
  6
Continuous
100
AcDbText
 10
1033.999995
 20
415.3437151076881
 30
0.0
 40
15.0
  1
Ｌ
100
AcDbText
  0
LINE
  5
6A
330
A
100
AcDbEntity
  8
0
  6
Continuous
100
AcDbLine
 10
489.5
 20
414.0
 30
0.0
 11
1590.49999
 21
414.0
 31
0.0
  0
CIRCLE
  5
6B
330
A
100
AcDbEntity
  8
0
  6
Continuous
100
AcDbCircle
 10
489.5
 20
414.0
 30
0.0
 40
1.5
  0
CIRCLE
  5
6C
330
A
100
AcDbEntity
  8
0
  6
Continuous
100
AcDbCircle
 10
489.5
 20
414.0
 30
0.0
 40
0.75
  0
CIRCLE
  5
6D
330
A
100
AcDbEntity
  8
0
  6
Continuous
100
AcDbCircle
 10
1590.49999
 20
414.0
 30
0.0
 40
1.5
  0
CIRCLE
  5
6E
330
A
100
AcDbEntity
  8
0
  6
Continuous
100
AcDbCircle
 10
1590.49999
 20
414.0
 30
0.0
 40
0.75
  0
LINE
  5
6F
330
A
100
AcDbEntity
  8
0
  6
Continuous
100
AcDbLine
 10
1907.59523
 20
885.9303009999999
 30
0.0
 11
1958.0
 21
885.9303009999999
 31
0.0
  0
LINE
  5
70
330
A
100
AcDbEntity
  8
0
  6
Continuous
100
AcDbLine
 10
1907.59523
 20
1437.930301
 30
0.0
 11
1958.0
 21
1437.930301
 31
0.0
  0
TEXT
  5
71
330
A
100
AcDbEntity
  8
0
  6
Continuous
100
AcDbText
 10
1957.7
 20
1155.930301
 30
0.0
 40
15.0
  1
Ｗ
 50
90.0
100
AcDbText
  0
LINE
  5
72
330
A
100
AcDbEntity
  8
0
  6
Continuous
100
AcDbLine
 10
1958.0
 20
885.9303009999999
 30
0.0
 11
1958.0
 21
1437.930301
 31
0.0
  0
CIRCLE
  5
73
330
A
100
AcDbEntity
  8
0
  6
Continuous
100
AcDbCircle
 10
1958.0
 20
885.9303009999999
 30
0.0
 40
1.5
  0
CIRCLE
  5
74
330
A
100
AcDbEntity
  8
0
  6
Continuous
100
AcDbCircle
 10
1958.0
 20
885.9303009999999
 30
0.0
 40
0.75
  0
CIRCLE
  5
75
330
A
100
AcDbEntity
  8
0
  6
Continuous
100
AcDbCircle
 10
1958.0
 20
1437.930301
 30
0.0
 40
1.5
  0
CIRCLE
  5
76
330
A
100
AcDbEntity
  8
0
  6
Continuous
100
AcDbCircle
 10
1958.0
 20
1437.930301
 30
0.0
 40
0.75
  0
TEXT
  5
77
330
A
100
AcDbEntity
  8
0
  6
Continuous
100
AcDbText
 10
569.4391481324088
 20
375.2221727446827
 30
0.0
 40
15.0
  1
アルミクランプレール
100
AcDbText
  0
LEADER
  5
78
330
A
100
AcDbEntity
  8
0
  6
Continuous
100
AcDbLeader
  3
STANDARD
 76
     3
 10
503.861003
 20
468.9389969999999
 30
0.0
 10
559.2245939153172
 20
373.0464450000001
 30
0.0
 10
752.2544414641043
 20
373.0464450000001
 30
0.0
1001
ACAD
1000
DSTYLE
1002
{
1070
    41
1040
6.0
1070
     5
1000
_EX_NORM
1070
     6
1000
_EX_NORM
1070
     7
1000
_EX_NORM
1002
}
  0
TEXT
  5
79
330
A
100
AcDbEntity
  8
0
  6
Continuous
100
AcDbText
 10
955.2999999999999
 20
953.7752193454537
 30
0.0
 40
15.0
  1
アルミクランプレール
100
AcDbText
  0
LEADER
  5
7A
330
A
100
AcDbEntity
  8
0
  6
Continuous
100
AcDbLeader
  3
STANDARD
 76
     3
 10
929.0
 20
912.1
 30
0.0
 10
951.154483
 20
950.4726900000001
 30
0.0
 10
1137.132287163123
 20
950.4726900000001
 30
0.0
1001
ACAD
1000
DSTYLE
1002
{
1070
    41
1040
6.0
1070
     5
1000
_EX_NORM
1070
     6
1000
_EX_NORM
1070
     7
1000
_EX_NORM
1002
}
  0
TEXT
  5
7B
330
A
100
AcDbEntity
  8
0
  6
Continuous
100
AcDbText
 10
1918.33834047409
 20
1473.812949475131
 30
0.0
 40
15.0
  1
アルミクランプレール
100
AcDbText
  0
LEADER
  5
7C
330
A
100
AcDbEntity
  8
0
  6
Continuous
100
AcDbLeader
  3
STANDARD
 76
     3
 10
1891.0
 20
1435.2
 30
0.0
 10
1912.303169
 20
1472.098171
 30
0.0
 10
2100.160089515952
 20
1472.098171
 30
0.0
1001
ACAD
1000
DSTYLE
1002
{
1070
    41
1040
6.0
1070
     5
1000
_EX_NORM
1070
     6
1000
_EX_NORM
1070
     7
1000
_EX_NORM
1002
}
  0
TEXT
  5
7D
330
A
100
AcDbEntity
  8
0
  6
Continuous
100
AcDbText
 10
876.4237256988542
 20
375.6991913149982
 30
0.0
 40
15.0
  1
フッ素樹脂フィルムガラスクロス（高透過６０％）
100
AcDbText
  0
LEADER
  5
7E
330
A
100
AcDbEntity
  8
0
  6
Continuous
100
AcDbLeader
  3
STANDARD
 76
     3
 10
817.9036290240286
 20
456.699319
 30
0.0
 10
866.2006380240287
 20
373.046445
 30
0.0
 10
1294.382700576758
 20
373.046445
 30
0.0
1001
ACAD
1000
DSTYLE
1002
{
1070
    41
1040
6.0
1070
     5
1000
_EX_NORM
1070
     6
1000
_EX_NORM
1070
     7
1000
_EX_NORM
1002
}
  0
TEXT
  5
7F
330
A
100
AcDbEntity
  8
0
  6
Continuous
100
AcDbText
 10
1973.53834047409
 20
1366.898860475131
 30
0.0
 40
15.0
  1
フッ素樹脂フィルムガラスクロス（高透過６０％）
100
AcDbText
  0
LEADER
  5
80
330
A
100
AcDbEntity
  8
0
  6
Continuous
100
AcDbLeader
  3
STANDARD
 76
     3
 10
1905.09523
 20
1323.5
 30
0.0
 10
1929.161546
 20
1365.184082
 30
0.0
 10
2384.793229509961
 20
1365.184082
 30
0.0
1001
ACAD
1000
DSTYLE
1002
{
1070
    41
1040
6.0
1070
     5
1000
_EX_NORM
1070
     6
1000
_EX_NORM
1070
     7
1000
_EX_NORM
1002
}
  0
LEADER
  5
81
330
A
100
AcDbEntity
  8
0
  6
Continuous
100
AcDbLeader
  3
STANDARD
 76
     3
 10
777.18106
 20
585.2399849999999
 30
0.0
 10
793.842355
 20
614.098196
 30
0.0
 10
852.4627418736553
 20
614.098196
 30
0.0
1001
ACAD
1000
DSTYLE
1002
{
1070
    41
1040
6.0
1070
     5
1000
_EX_NORM
1070
     6
1000
_EX_NORM
1070
     7
1000
_EX_NORM
1002
}
  0
TEXT
  5
82
330
A
100
AcDbEntity
  8
0
  6
Continuous
100
AcDbText
 10
798.0
 20
614.3981959999999
 30
0.0
 40
15.0
  1
Ｖバネ
100
AcDbText
  0
TEXT
  5
83
330
A
100
AcDbEntity
  8
0
  6
Continuous
100
AcDbText
 10
762.7094498524634
 20
951.5456693951922
 30
0.0
 40
15.0
  1
Ｖバネ
100
AcDbText
  0
LEADER
  5
84
330
A
100
AcDbEntity
  8
0
  6
Continuous
100
AcDbLeader
  3
STANDARD
 76
     3
 10
744.0
 20
923.030301
 30
0.0
 10
759.8438705885079
 20
950.4726900000001
 30
0.0
 10
815.8042711013679
 20
950.4726900000001
 30
0.0
1001
ACAD
1000
DSTYLE
1002
{
1070
    41
1040
6.0
1070
     5
1000
_EX_NORM
1070
     6
1000
_EX_NORM
1070
     7
1000
_EX_NORM
1002
}
  0
LINE
  5
85
330
A
100
AcDbEntity
  8
0
  6
Continuous
100
AcDbLine
 10
487.0
 20
457.199319
 30
0.0
 11
439.2
 21
457.199319
 31
0.0
  0
LINE
  5
86
330
A
100
AcDbEntity
  8
0
  6
Continuous
100
AcDbLine
 10
488.4999999999999
 20
514.1993099999999
 30
0.0
 11
439.2
 21
514.1993099999999
 31
0.0
  0
TEXT
  5
87
330
A
100
AcDbEntity
  8
0
  6
Continuous
100
AcDbText
 10
436.2830725050866
 20
475.4371512171874
 30
0.0
 40
15.0
  1
57
 50
90.0
 41
0.8
100
AcDbText
  0
LINE
  5
88
330
A
100
AcDbEntity
  8
0
  6
Continuous
100
AcDbLine
 10
439.2
 20
457.199319
 30
0.0
 11
439.2
 21
514.1993099999999
 31
0.0
  0
CIRCLE
  5
89
330
A
100
AcDbEntity
  8
0
  6
Continuous
100
AcDbCircle
 10
439.2
 20
457.199319
 30
0.0
 40
1.5
  0
CIRCLE
  5
8A
330
A
100
AcDbEntity
  8
0
  6
Continuous
100
AcDbCircle
 10
439.2
 20
457.199319
 30
0.0
 40
0.75
  0
CIRCLE
  5
8B
330
A
100
AcDbEntity
  8
0
  6
Continuous
100
AcDbCircle
 10
439.2
 20
514.1993099999999
 30
0.0
 40
1.5
  0
CIRCLE
  5
8C
330
A
100
AcDbEntity
  8
0
  6
Continuous
100
AcDbCircle
 10
439.2
 20
514.1993099999999
 30
0.0
 40
0.75
  0
LINE
  5
8D
330
A
100
AcDbEntity
  8
0
  6
Continuous
100
AcDbLine
 10
488.4999999999999
 20
524.19931
 30
0.0
 11
439.2
 21
524.19931
 31
0.0
  0
TEXT
  5
8E
330
A
100
AcDbEntity
  8
0
  6
Continuous
100
AcDbText
 10
435.8681760992873
 20
509.3518446301908
 30
0.0
 40
15.0
  1
10
 50
90.0
 41
0.8
100
AcDbText
  0
LINE
  5
8F
330
A
100
AcDbEntity
  8
0
  6
Continuous
100
AcDbLine
 10
439.2
 20
514.1993099999999
 30
0.0
 11
439.2
 21
524.19931
 31
0.0
  0
CIRCLE
  5
90
330
A
100
AcDbEntity
  8
0
  6
Continuous
100
AcDbCircle
 10
439.2
 20
514.1993099999999
 30
0.0
 40
1.5
  0
CIRCLE
  5
91
330
A
100
AcDbEntity
  8
0
  6
Continuous
100
AcDbCircle
 10
439.2
 20
514.1993099999999
 30
0.0
 40
0.75
  0
CIRCLE
  5
92
330
A
100
AcDbEntity
  8
0
  6
Continuous
100
AcDbCircle
 10
439.2
 20
524.19931
 30
0.0
 40
1.5
  0
CIRCLE
  5
93
330
A
100
AcDbEntity
  8
0
  6
Continuous
100
AcDbCircle
 10
439.2
 20
524.19931
 30
0.0
 40
0.75
  0
LINE
  5
94
330
A
100
AcDbEntity
  8
0
  6
Continuous
100
AcDbLine
 10
488.4999999999999
 20
554.19931
 30
0.0
 11
439.2
 21
554.19931
 31
0.0
  0
TEXT
  5
95
330
A
100
AcDbEntity
  8
0
  6
Continuous
100
AcDbText
 10
436.1220398786683
 20
536.6012651537094
 30
0.0
 40
15.0
  1
30
 50
90.0
 41
0.8
100
AcDbText
  0
LINE
  5
96
330
A
100
AcDbEntity
  8
0
  6
Continuous
100
AcDbLine
 10
439.2
 20
524.19931
 30
0.0
 11
439.2
 21
554.19931
 31
0.0
  0
CIRCLE
  5
97
330
A
100
AcDbEntity
  8
0
  6
Continuous
100
AcDbCircle
 10
439.2
 20
554.19931
 30
0.0
 40
1.5
  0
CIRCLE
  5
98
330
A
100
AcDbEntity
  8
0
  6
Continuous
100
AcDbCircle
 10
439.2
 20
554.19931
 30
0.0
 40
0.75
  0
LINE
  5
99
330
A
100
AcDbEntity
  8
0
  6
Continuous
100
AcDbLine
 10
1807.59523
 20
884.9303009999999
 30
0.0
 11
1807.59523
 21
832.0
 31
0.0
  0
LINE
  5
9A
330
A
100
AcDbEntity
  8
0
  6
Continuous
100
AcDbLine
 10
1837.59523
 20
884.9303009999999
 30
0.0
 11
1837.59523
 21
832.0
 31
0.0
  0
TEXT
  5
9B
330
A
100
AcDbEntity
  8
0
  6
Continuous
100
AcDbText
 10
1812.300062130326
 20
833.7336514866608
 30
0.0
 40
15.0
  1
30
 41
0.8
100
AcDbText
  0
LINE
  5
9C
330
A
100
AcDbEntity
  8
0
  6
Continuous
100
AcDbLine
 10
1807.59523
 20
832.0
 30
0.0
 11
1837.59523
 21
832.0
 31
0.0
  0
CIRCLE
  5
9D
330
A
100
AcDbEntity
  8
0
  6
Continuous
100
AcDbCircle
 10
1807.59523
 20
832.0
 30
0.0
 40
1.5
  0
CIRCLE
  5
9E
330
A
100
AcDbEntity
  8
0
  6
Continuous
100
AcDbCircle
 10
1807.59523
 20
832.0
 30
0.0
 40
0.75
  0
CIRCLE
  5
9F
330
A
100
AcDbEntity
  8
0
  6
Continuous
100
AcDbCircle
 10
1837.59523
 20
832.0
 30
0.0
 40
1.5
  0
CIRCLE
  5
A0
330
A
100
AcDbEntity
  8
0
  6
Continuous
100
AcDbCircle
 10
1837.59523
 20
832.0
 30
0.0
 40
0.75
  0
LINE
  5
A1
330
A
100
AcDbEntity
  8
0
  6
Continuous
100
AcDbLine
 10
1847.59523
 20
884.9303009999999
 30
0.0
 11
1847.59523
 21
832.0
 31
0.0
  0
TEXT
  5
A2
330
A
100
AcDbEntity
  8
0
  6
Continuous
100
AcDbText
 10
1834.338967942471
 20
814.4999999999999
 30
0.0
 40
15.0
  1
10
 41
0.8
100
AcDbText
  0
LINE
  5
A3
330
A
100
AcDbEntity
  8
0
  6
Continuous
100
AcDbLine
 10
1837.59523
 20
832.0
 30
0.0
 11
1847.59523
 21
832.0
 31
0.0
  0
CIRCLE
  5
A4
330
A
100
AcDbEntity
  8
0
  6
Continuous
100
AcDbCircle
 10
1847.59523
 20
832.0
 30
0.0
 40
1.5
  0
CIRCLE
  5
A5
330
A
100
AcDbEntity
  8
0
  6
Continuous
100
AcDbCircle
 10
1847.59523
 20
832.0
 30
0.0
 40
0.75
  0
LINE
  5
A6
330
A
100
AcDbEntity
  8
0
  6
Continuous
100
AcDbLine
 10
1904.59523
 20
883.4303009999999
 30
0.0
 11
1904.59523
 21
832.0
 31
0.0
  0
TEXT
  5
A7
330
A
100
AcDbEntity
  8
0
  6
Continuous
100
AcDbText
 10
1865.800062130326
 20
833.7336514866608
 30
0.0
 40
15.0
  1
57
 41
0.8
100
AcDbText
  0
LINE
  5
A8
330
A
100
AcDbEntity
  8
0
  6
Continuous
100
AcDbLine
 10
1847.59523
 20
832.0
 30
0.0
 11
1904.59523
 21
832.0
 31
0.0
  0
CIRCLE
  5
A9
330
A
100
AcDbEntity
  8
0
  6
Continuous
100
AcDbCircle
 10
1904.59523
 20
832.0
 30
0.0
 40
1.5
  0
CIRCLE
  5
AA
330
A
100
AcDbEntity
  8
0
  6
Continuous
100
AcDbCircle
 10
1904.59523
 20
832.0
 30
0.0
 40
0.75
  0
TEXT
  5
AB
330
A
100
AcDbEntity
  8
0
  6
Continuous
100
AcDbText
 10
1724.81659311803
 20
1366.371407052895
 30
0.0
 40
15.0
  1
Ｖバネ
100
AcDbText
  0
LEADER
  5
AC
330
A
100
AcDbEntity
  8
0
  6
Continuous
100
AcDbLeader
  3
STANDARD
 76
     3
 10
1794.11025
 20
1396.379283
 30
0.0
 10
1776.073649
 20
1365.138974
 30
0.0
 10
1723.827833187481
 20
1365.138974
 30
0.0
1001
ACAD
1000
DSTYLE
1002
{
1070
    41
1040
6.0
1070
     5
1000
_EX_NORM
1070
     6
1000
_EX_NORM
1070
     7
1000
_EX_NORM
1002
}
  0
TEXT
  5
AD
330
A
100
AcDbEntity
  8
0
  6
Continuous
100
AcDbText
 10
437.5208260235973
 20
584.992063385534
 30
0.0
 40
15.0
  1
上枠
100
AcDbText
  0
LEADER
  5
AE
330
A
100
AcDbEntity
  8
0
  6
Continuous
100
AcDbLeader
  3
STANDARD
 76
     3
 10
493.0
 20
549.7
 30
0.0
 10
473.744074
 20
583.0522409999999
 30
0.0
 10
432.6
 20
583.0522409999999
 30
0.0
1001
ACAD
1000
DSTYLE
1002
{
1070
    41
1040
6.0
1070
     5
1000
_EX_NORM
1070
     6
1000
_EX_NORM
1070
     7
1000
_EX_NORM
1002
}
  0
TEXT
  5
AF
330
A
100
AcDbEntity
  8
0
  6
Continuous
100
AcDbText
 10
1753.795205747981
 20
1473.330604052895
 30
0.0
 40
15.0
  1
上枠
100
AcDbText
  0
LEADER
  5
B0
330
A
100
AcDbEntity
  8
0
  6
Continuous
100
AcDbLeader
  3
STANDARD
 76
     3
 10
1811.1
 20
1434.430301
 30
0.0
 10
1789.352444761654
 20
1472.098171
 30
0.0
 10
1749.023062636784
 20
1472.098171
 30
0.0
1001
ACAD
1000
DSTYLE
1002
{
1070
    41
1040
6.0
1070
     5
1000
_EX_NORM
1070
     6
1000
_EX_NORM
1070
     7
1000
_EX_NORM
1002
}
  0
LINE
  5
B1
330
A
100
AcDbEntity
  8
0
  6
Continuous
100
AcDbLine
 10
1007.499996
 20
911.9303009999999
 30
0.0
 11
1007.499996
 21
904.930301
 31
0.0
  0
LINE
  5
B2
330
A
100
AcDbEntity
  8
0
  6
Continuous
100
AcDbLine
 10
1007.499996
 20
897.930301
 30
0.0
 11
1007.499996
 21
890.930301
 31
0.0
  0
LINE
  5
B3
330
A
100
AcDbEntity
  8
0
  6
Continuous
100
AcDbLine
 10
1007.499996
 20
890.930301
 30
0.0
 11
1072.499996
 21
890.930301
 31
0.0
  0
LINE
  5
B4
330
A
100
AcDbEntity
  8
0
  6
Continuous
100
AcDbLine
 10
1072.499996
 20
890.930301
 30
0.0
 11
1072.499996
 21
897.930301
 31
0.0
  0
LINE
  5
B5
330
A
100
AcDbEntity
  8
0
  6
Continuous
100
AcDbLine
 10
1072.499996
 20
904.930301
 30
0.0
 11
1072.499996
 21
911.9303009999999
 31
0.0
  0
LINE
  5
B6
330
A
100
AcDbEntity
  8
0
  6
Continuous
100
AcDbLine
 10
1072.499996
 20
911.9303009999999
 30
0.0
 11
1007.499996
 21
911.9303009999999
 31
0.0
  0
LINE
  5
B7
330
A
100
AcDbEntity
  8
0
  6
Continuous
100
AcDbLine
 10
1072.499996
 20
1411.930301
 30
0.0
 11
1007.499996
 21
1411.930301
 31
0.0
  0
LINE
  5
B8
330
A
100
AcDbEntity
  8
0
  6
Continuous
100
AcDbLine
 10
1007.499996
 20
1411.930301
 30
0.0
 11
1007.499996
 21
1418.930301
 31
0.0
  0
LINE
  5
B9
330
A
100
AcDbEntity
  8
0
  6
Continuous
100
AcDbLine
 10
1007.499996
 20
1425.930301
 30
0.0
 11
1007.499996
 21
1432.930301
 31
0.0
  0
LINE
  5
BA
330
A
100
AcDbEntity
  8
0
  6
Continuous
100
AcDbLine
 10
1007.499996
 20
1432.930301
 30
0.0
 11
1072.499996
 21
1432.930301
 31
0.0
  0
LINE
  5
BB
330
A
100
AcDbEntity
  8
0
  6
Continuous
100
AcDbLine
 10
1072.499996
 20
1432.930301
 30
0.0
 11
1072.499996
 21
1425.930301
 31
0.0
  0
LINE
  5
BC
330
A
100
AcDbEntity
  8
0
  6
Continuous
100
AcDbLine
 10
1072.499996
 20
1418.930301
 30
0.0
 11
1072.499996
 21
1411.930301
 31
0.0
  0
LINE
  5
BD
330
A
100
AcDbEntity
  8
0
  6
Continuous
100
AcDbLine
 10
644.3999999999999
 20
921.2303009999999
 30
0.0
 11
665.6
 21
921.2303009999999
 31
0.0
  0
LINE
  5
BE
330
A
100
AcDbEntity
  8
0
  6
Continuous
100
AcDbLine
 10
665.6
 20
921.2303009999999
 30
0.0
 11
792.8435519999999
 21
921.2303009999999
 31
0.0
  0
LINE
  5
BF
330
A
100
AcDbEntity
  8
0
  6
Continuous
100
AcDbLine
 10
792.8435519999999
 20
920.5082009999999
 30
0.0
 11
792.8435519999999
 21
924.515951
 31
0.0
  0
LINE
  5
C0
330
A
100
AcDbEntity
  8
0
  6
Continuous
100
AcDbLine
 10
792.8435519999999
 20
923.030301
 30
0.0
 11
665.6
 21
923.030301
 31
0.0
  0
LINE
  5
C1
330
A
100
AcDbEntity
  8
0
  6
Continuous
100
AcDbLine
 10
665.6
 20
923.030301
 30
0.0
 11
644.3999999999999
 21
923.030301
 31
0.0
  0
LINE
  5
C2
330
A
100
AcDbEntity
  8
0
  6
Continuous
100
AcDbLine
 10
644.3999999999999
 20
924.8303009999998
 30
0.0
 11
665.6
 21
924.8303009999998
 31
0.0
  0
LINE
  5
C3
330
A
100
AcDbEntity
  8
0
  6
Continuous
100
AcDbLine
 10
665.6
 20
926.6303009999999
 30
0.0
 11
644.3999999999999
 21
926.6303009999999
 31
0.0
  0
LINE
  5
C4
330
A
100
AcDbEntity
  8
0
  6
Continuous
100
AcDbLine
 10
644.3999999999999
 20
926.6303009999999
 30
0.0
 11
517.1564400000001
 21
926.6303009999999
 31
0.0
  0
LINE
  5
C5
330
A
100
AcDbEntity
  8
0
  6
Continuous
100
AcDbLine
 10
517.1564400000001
 20
924.8303009999998
 30
0.0
 11
644.3999999999999
 21
924.8303009999998
 31
0.0
  0
CIRCLE
  5
C6
330
A
100
AcDbEntity
  8
0
  6
Continuous
100
AcDbCircle
 10
644.3999999999999
 20
923.930301
 30
0.0
 40
0.9
  0
CIRCLE
  5
C7
330
A
100
AcDbEntity
  8
0
  6
Continuous
100
AcDbCircle
 10
644.3999999999999
 20
922.1303009999999
 30
0.0
 40
0.9
  0
CIRCLE
  5
C8
330
A
100
AcDbEntity
  8
0
  6
Continuous
100
AcDbCircle
 10
644.3999999999999
 20
925.7303009999999
 30
0.0
 40
0.9
  0
CIRCLE
  5
C9
330
A
100
AcDbEntity
  8
0
  6
Continuous
100
AcDbCircle
 10
665.6
 20
923.930301
 30
0.0
 40
0.9
  0
CIRCLE
  5
CA
330
A
100
AcDbEntity
  8
0
  6
Continuous
100
AcDbCircle
 10
665.6
 20
922.1303009999999
 30
0.0
 40
0.9
  0
CIRCLE
  5
CB
330
A
100
AcDbEntity
  8
0
  6
Continuous
100
AcDbCircle
 10
665.6
 20
925.7303009999999
 30
0.0
 40
0.9
  0
CIRCLE
  5
CC
330
A
100
AcDbEntity
  8
0
  6
Continuous
100
AcDbCircle
 10
792.8435519999999
 20
922.1303009999999
 30
0.0
 40
0.9
  0
CIRCLE
  5
CD
330
A
100
AcDbEntity
  8
0
  6
Continuous
100
AcDbCircle
 10
517.1564400000001
 20
925.7303009999999
 30
0.0
 40
0.9
  0
LINE
  5
CE
330
A
100
AcDbEntity
  8
0
  6
Continuous
100
AcDbLine
 10
670.0
 20
926.430301
 30
0.0
 11
672.5
 21
926.430301
 31
0.0
  0
LINE
  5
CF
330
A
100
AcDbEntity
  8
0
  6
Continuous
100
AcDbLine
 10
670.0
 20
926.430301
 30
0.0
 11
670.0
 21
929.430301
 31
0.0
  0
LINE
  5
D0
330
A
100
AcDbEntity
  8
0
  6
Continuous
100
AcDbLine
 10
672.0
 20
931.4303009999999
 30
0.0
 11
685.0
 21
931.4303009999999
 31
0.0
  0
LINE
  5
D1
330
A
100
AcDbEntity
  8
0
  6
Continuous
100
AcDbLine
 10
685.0
 20
931.4303009999999
 30
0.0
 11
685.0
 21
916.4303009999999
 31
0.0
  0
LINE
  5
D2
330
A
100
AcDbEntity
  8
0
  6
Continuous
100
AcDbLine
 10
685.0
 20
917.6303009999999
 30
0.0
 11
625.0
 21
917.6303009999999
 31
0.0
  0
LINE
  5
D3
330
A
100
AcDbEntity
  8
0
  6
Continuous
100
AcDbLine
 10
625.0
 20
916.4303009999999
 30
0.0
 11
625.0
 21
931.4303009999999
 31
0.0
  0
LINE
  5
D4
330
A
100
AcDbEntity
  8
0
  6
Continuous
100
AcDbLine
 10
625.0
 20
931.4303009999999
 30
0.0
 11
638.0
 21
931.4303009999999
 31
0.0
  0
LINE
  5
D5
330
A
100
AcDbEntity
  8
0
  6
Continuous
100
AcDbLine
 10
640.0
 20
929.430301
 30
0.0
 11
640.0
 21
926.430301
 31
0.0
  0
LINE
  5
D6
330
A
100
AcDbEntity
  8
0
  6
Continuous
100
AcDbLine
 10
640.0
 20
926.430301
 30
0.0
 11
637.5
 21
926.430301
 31
0.0
  0
LINE
  5
D7
330
A
100
AcDbEntity
  8
0
  6
Continuous
100
AcDbLine
 10
670.0
 20
921.430301
 30
0.0
 11
670.0
 21
917.6303009999999
 31
0.0
  0
LINE
  5
D8
330
A
100
AcDbEntity
  8
0
  6
Continuous
100
AcDbLine
 10
672.5
 20
921.430301
 30
0.0
 11
670.0
 21
921.430301
 31
0.0
  0
LINE
  5
D9
330
A
100
AcDbEntity
  8
0
  6
Continuous
100
AcDbLine
 10
640.0
 20
917.6303009999999
 30
0.0
 11
640.0
 21
921.430301
 31
0.0
  0
LINE
  5
DA
330
A
100
AcDbEntity
  8
0
  6
Continuous
100
AcDbLine
 10
640.0
 20
921.430301
 30
0.0
 11
637.5
 21
921.430301
 31
0.0
  0
LINE
  5
DB
330
A
100
AcDbEntity
  8
0
  6
Continuous
100
AcDbLine
 10
1007.499996
 20
904.6803009999999
 30
0.0
 11
685.0
 21
904.6803009999999
 31
0.0
  0
LINE
  5
DC
330
A
100
AcDbEntity
  8
0
  6
Continuous
100
AcDbLine
 10
685.0
 20
898.180301
 30
0.0
 11
1007.499996
 21
898.180301
 31
0.0
  0
LINE
  5
DD
330
A
100
AcDbEntity
  8
0
  6
Continuous
100
AcDbLine
 10
508.25
 20
961.430301
 30
0.0
 11
508.25
 21
1128.930301
 31
0.0
  0
LINE
  5
DE
330
A
100
AcDbEntity
  8
0
  6
Continuous
100
AcDbLine
 10
508.4999999999999
 20
1128.930301
 30
0.0
 11
515.5
 21
1128.930301
 31
0.0
  0
LINE
  5
DF
330
A
100
AcDbEntity
  8
0
  6
Continuous
100
AcDbLine
 10
515.5
 20
1128.930301
 30
0.0
 11
515.5
 21
1193.930301
 31
0.0
  0
LINE
  5
E0
330
A
100
AcDbEntity
  8
0
  6
Continuous
100
AcDbLine
 10
515.5
 20
1193.930301
 30
0.0
 11
508.4999999999999
 21
1193.930301
 31
0.0
  0
LINE
  5
E1
330
A
100
AcDbEntity
  8
0
  6
Continuous
100
AcDbLine
 10
501.4999999999999
 20
1193.930301
 30
0.0
 11
494.5
 21
1193.930301
 31
0.0
  0
LINE
  5
E2
330
A
100
AcDbEntity
  8
0
  6
Continuous
100
AcDbLine
 10
494.5
 20
1193.930301
 30
0.0
 11
494.5
 21
1128.930301
 31
0.0
  0
LINE
  5
E3
330
A
100
AcDbEntity
  8
0
  6
Continuous
100
AcDbLine
 10
494.5
 20
1128.930301
 30
0.0
 11
501.4999999999999
 21
1128.930301
 31
0.0
  0
LINE
  5
E4
330
A
100
AcDbEntity
  8
0
  6
Continuous
100
AcDbLine
 10
501.75
 20
1128.930301
 30
0.0
 11
501.75
 21
961.430301
 31
0.0
  0
LINE
  5
E5
330
A
100
AcDbEntity
  8
0
  6
Continuous
100
AcDbLine
 10
565.0
 20
898.180301
 30
0.0
 11
625.0
 21
898.180301
 31
0.0
  0
LINE
  5
E6
330
A
100
AcDbEntity
  8
0
  6
Continuous
100
AcDbLine
 10
625.0
 20
904.6803009999999
 30
0.0
 11
565.0
 21
904.6803009999999
 31
0.0
  0
CIRCLE
  5
E7
330
A
100
AcDbEntity
  8
0
  6
Continuous
100
AcDbCircle
 10
555.0
 20
901.430301
 30
0.0
 40
4.5
  0
CIRCLE
  5
E8
330
A
100
AcDbEntity
  8
0
  6
Continuous
100
AcDbCircle
 10
515.0
 20
901.430301
 30
0.0
 40
4.5
  0
CIRCLE
  5
E9
330
A
100
AcDbEntity
  8
0
  6
Continuous
100
AcDbCircle
 10
505.0
 20
911.430301
 30
0.0
 40
4.5
  0
CIRCLE
  5
EA
330
A
100
AcDbEntity
  8
0
  6
Continuous
100
AcDbCircle
 10
505.0
 20
951.430301
 30
0.0
 40
4.5
  0
ARC
  5
EB
330
A
100
AcDbEntity
  8
0
  6
Continuous
100
AcDbCircle
 10
637.5
 20
923.930301
 30
0.0
 40
2.5
100
AcDbArc
 50
180.0
 51
270.0
  0
ARC
  5
EC
330
A
100
AcDbEntity
  8
0
  6
Continuous
100
AcDbCircle
 10
637.5
 20
923.930301
 30
0.0
 40
2.5
100
AcDbArc
 50
90.0
 51
180.0
  0
ARC
  5
ED
330
A
100
AcDbEntity
  8
0
  6
Continuous
100
AcDbCircle
 10
672.5
 20
923.930301
 30
0.0
 40
2.5
100
AcDbArc
 50
270.0
 51
0.0
  0
ARC
  5
EE
330
A
100
AcDbEntity
  8
0
  6
Continuous
100
AcDbCircle
 10
672.5
 20
923.930301
 30
0.0
 40
2.5
100
AcDbArc
 50
0.0
 51
90.0
  0
ARC
  5
EF
330
A
100
AcDbEntity
  8
0
  6
Continuous
100
AcDbCircle
 10
638.0
 20
929.430301
 30
0.0
 40
2.0
100
AcDbArc
 50
0.0
 51
90.0
  0
ARC
  5
F0
330
A
100
AcDbEntity
  8
0
  6
Continuous
100
AcDbCircle
 10
672.0
 20
929.430301
 30
0.0
 40
2.0
100
AcDbArc
 50
90.0
 51
180.0
  0
LINE
  5
F1
330
A
100
AcDbEntity
  8
0
  6
Continuous
100
AcDbLine
 10
495.0
 20
891.4303009999999
 30
0.0
 11
495.0
 21
961.430301
 31
0.0
  0
LINE
  5
F2
330
A
100
AcDbEntity
  8
0
  6
Continuous
100
AcDbLine
 10
495.0
 20
961.430301
 30
0.0
 11
515.0
 21
961.430301
 31
0.0
  0
LINE
  5
F3
330
A
100
AcDbEntity
  8
0
  6
Continuous
100
AcDbLine
 10
515.0
 20
961.430301
 30
0.0
 11
515.0
 21
911.430301
 31
0.0
  0
LINE
  5
F4
330
A
100
AcDbEntity
  8
0
  6
Continuous
100
AcDbLine
 10
515.0
 20
911.430301
 30
0.0
 11
565.0
 21
911.430301
 31
0.0
  0
LINE
  5
F5
330
A
100
AcDbEntity
  8
0
  6
Continuous
100
AcDbLine
 10
565.0
 20
911.430301
 30
0.0
 11
565.0
 21
891.4303009999999
 31
0.0
  0
LINE
  5
F6
330
A
100
AcDbEntity
  8
0
  6
Continuous
100
AcDbLine
 10
565.0
 20
891.4303009999999
 30
0.0
 11
495.0
 21
891.4303009999999
 31
0.0
  0
LINE
  5
F7
330
A
100
AcDbEntity
  8
0
  6
Continuous
100
AcDbLine
 10
642.4999999999999
 20
921.030301
 30
0.0
 11
642.4999999999999
 21
913.430301
 31
0.0
  0
LINE
  5
F8
330
A
100
AcDbEntity
  8
0
  6
Continuous
100
AcDbLine
 10
642.4999999999999
 20
913.430301
 30
0.0
 11
625.0
 21
913.430301
 31
0.0
  0
LINE
  5
F9
330
A
100
AcDbEntity
  8
0
  6
Continuous
100
AcDbLine
 10
625.0
 20
913.430301
 30
0.0
 11
625.0
 21
889.4303009999999
 31
0.0
  0
LINE
  5
FA
330
A
100
AcDbEntity
  8
0
  6
Continuous
100
AcDbLine
 10
625.0
 20
889.4303009999999
 30
0.0
 11
685.0
 21
889.4303009999999
 31
0.0
  0
LINE
  5
FB
330
A
100
AcDbEntity
  8
0
  6
Continuous
100
AcDbLine
 10
685.0
 20
889.4303009999999
 30
0.0
 11
685.0
 21
913.430301
 31
0.0
  0
LINE
  5
FC
330
A
100
AcDbEntity
  8
0
  6
Continuous
100
AcDbLine
 10
685.0
 20
913.430301
 30
0.0
 11
667.4999999999999
 21
913.430301
 31
0.0
  0
LINE
  5
FD
330
A
100
AcDbEntity
  8
0
  6
Continuous
100
AcDbLine
 10
667.4999999999999
 20
913.430301
 30
0.0
 11
667.4999999999999
 21
921.030301
 31
0.0
  0
LINE
  5
FE
330
A
100
AcDbEntity
  8
0
  6
Continuous
100
AcDbLine
 10
667.4999999999999
 20
921.030301
 30
0.0
 11
642.4999999999999
 21
921.030301
 31
0.0
  0
LINE
  5
FF
330
A
100
AcDbEntity
  8
0
  6
Continuous
100
AcDbLine
 10
642.4999999999999
 20
919.430301
 30
0.0
 11
667.4999999999999
 21
919.430301
 31
0.0
  0
LINE
  5
100
330
A
100
AcDbEntity
  8
0
  6
Continuous
100
AcDbLine
 10
673.3999999999999
 20
913.430301
 30
0.0
 11
673.3999999999999
 21
889.4303009999999
 31
0.0
  0
LINE
  5
101
330
A
100
AcDbEntity
  8
0
  6
Continuous
100
AcDbLine
 10
675.0
 20
889.4303009999999
 30
0.0
 11
675.0
 21
913.430301
 31
0.0
  0
LINE
  5
102
330
A
100
AcDbEntity
  8
0
  6
Continuous
100
AcDbLine
 10
662.25
 20
896.430301
 30
0.0
 11
662.25
 21
906.4303009999999
 31
0.0
  0
LINE
  5
103
330
A
100
AcDbEntity
  8
0
  6
Continuous
100
AcDbLine
 10
667.75
 20
906.4303009999999
 30
0.0
 11
667.75
 21
896.430301
 31
0.0
  0
LINE
  5
104
330
A
100
AcDbEntity
  8
0
  6
Continuous
100
AcDbLine
 10
642.25
 20
896.430301
 30
0.0
 11
642.25
 21
906.4303009999999
 31
0.0
  0
LINE
  5
105
330
A
100
AcDbEntity
  8
0
  6
Continuous
100
AcDbLine
 10
647.75
 20
906.4303009999999
 30
0.0
 11
647.75
 21
896.430301
 31
0.0
  0
LINE
  5
106
330
A
100
AcDbEntity
  8
0
  6
Continuous
100
AcDbLine
 10
636.6
 20
913.430301
 30
0.0
 11
636.6
 21
889.4303009999999
 31
0.0
  0
LINE
  5
107
330
A
100
AcDbEntity
  8
0
  6
Continuous
100
AcDbLine
 10
635.0
 20
889.4303009999999
 30
0.0
 11
635.0
 21
913.430301
 31
0.0
  0
ARC
  5
108
330
A
100
AcDbEntity
  8
0
  6
Continuous
100
AcDbCircle
 10
665.0
 20
896.430301
 30
0.0
 40
2.75
100
AcDbArc
 50
180.0
 51
0.0
  0
ARC
  5
109
330
A
100
AcDbEntity
  8
0
  6
Continuous
100
AcDbCircle
 10
665.0
 20
906.4303009999999
 30
0.0
 40
2.75
100
AcDbArc
 50
0.0
 51
180.0
  0
ARC
  5
10A
330
A
100
AcDbEntity
  8
0
  6
Continuous
100
AcDbCircle
 10
645.0
 20
896.430301
 30
0.0
 40
2.75
100
AcDbArc
 50
180.0
 51
0.0
  0
ARC
  5
10B
330
A
100
AcDbEntity
  8
0
  6
Continuous
100
AcDbCircle
 10
645.0
 20
906.4303009999999
 30
0.0
 40
2.75
100
AcDbArc
 50
0.0
 51
180.0
  0
LINE
  5
10C
330
A
100
AcDbEntity
  8
0
  6
Continuous
100
AcDbLine
 10
665.6
 20
1402.630301
 30
0.0
 11
644.3999999999999
 21
1402.630301
 31
0.0
  0
LINE
  5
10D
330
A
100
AcDbEntity
  8
0
  6
Continuous
100
AcDbLine
 10
644.3999999999999
 20
1402.630301
 30
0.0
 11
517.1564400000001
 21
1402.630301
 31
0.0
  0
LINE
  5
10E
330
A
100
AcDbEntity
  8
0
  6
Continuous
100
AcDbLine
 10
517.1564400000001
 20
1400.830301
 30
0.0
 11
644.3999999999999
 21
1400.830301
 31
0.0
  0
LINE
  5
10F
330
A
100
AcDbEntity
  8
0
  6
Continuous
100
AcDbLine
 10
644.3999999999999
 20
1400.830301
 30
0.0
 11
665.6
 21
1400.830301
 31
0.0
  0
LINE
  5
110
330
A
100
AcDbEntity
  8
0
  6
Continuous
100
AcDbLine
 10
665.6
 20
1399.030301
 30
0.0
 11
644.3999999999999
 21
1399.030301
 31
0.0
  0
LINE
  5
111
330
A
100
AcDbEntity
  8
0
  6
Continuous
100
AcDbLine
 10
644.3999999999999
 20
1397.230301
 30
0.0
 11
665.6
 21
1397.230301
 31
0.0
  0
LINE
  5
112
330
A
100
AcDbEntity
  8
0
  6
Continuous
100
AcDbLine
 10
665.6
 20
1397.230301
 30
0.0
 11
792.8435519999999
 21
1397.230301
 31
0.0
  0
LINE
  5
113
330
A
100
AcDbEntity
  8
0
  6
Continuous
100
AcDbLine
 10
792.8435519999999
 20
1399.030301
 30
0.0
 11
665.6
 21
1399.030301
 31
0.0
  0
CIRCLE
  5
114
330
A
100
AcDbEntity
  8
0
  6
Continuous
100
AcDbCircle
 10
665.6
 20
1399.930301
 30
0.0
 40
0.9
  0
CIRCLE
  5
115
330
A
100
AcDbEntity
  8
0
  6
Continuous
100
AcDbCircle
 10
665.6
 20
1401.730301
 30
0.0
 40
0.9
  0
CIRCLE
  5
116
330
A
100
AcDbEntity
  8
0
  6
Continuous
100
AcDbCircle
 10
665.6
 20
1398.130301
 30
0.0
 40
0.9
  0
CIRCLE
  5
117
330
A
100
AcDbEntity
  8
0
  6
Continuous
100
AcDbCircle
 10
644.3999999999999
 20
1399.930301
 30
0.0
 40
0.9
  0
CIRCLE
  5
118
330
A
100
AcDbEntity
  8
0
  6
Continuous
100
AcDbCircle
 10
644.3999999999999
 20
1401.730301
 30
0.0
 40
0.9
  0
CIRCLE
  5
119
330
A
100
AcDbEntity
  8
0
  6
Continuous
100
AcDbCircle
 10
644.3999999999999
 20
1398.130301
 30
0.0
 40
0.9
  0
CIRCLE
  5
11A
330
A
100
AcDbEntity
  8
0
  6
Continuous
100
AcDbCircle
 10
517.1564400000001
 20
1401.730301
 30
0.0
 40
0.9
  0
CIRCLE
  5
11B
330
A
100
AcDbEntity
  8
0
  6
Continuous
100
AcDbCircle
 10
792.8435519999999
 20
1398.130301
 30
0.0
 40
0.9
  0
LINE
  5
11C
330
A
100
AcDbEntity
  8
0
  6
Continuous
100
AcDbLine
 10
490.0
 20
886.430301
 30
0.0
 11
490.0
 21
1437.430301
 31
0.0
  0
LINE
  5
11D
330
A
100
AcDbEntity
  8
0
  6
Continuous
100
AcDbLine
 10
520.0
 20
916.4303009999999
 30
0.0
 11
520.0
 21
1407.430301
 31
0.0
  0
LINE
  5
11E
330
A
100
AcDbEntity
  8
0
  6
Continuous
100
AcDbLine
 10
1007.499996
 20
1419.180301
 30
0.0
 11
685.0
 21
1419.180301
 31
0.0
  0
LINE
  5
11F
330
A
100
AcDbEntity
  8
0
  6
Continuous
100
AcDbLine
 10
685.0
 20
1425.680301
 30
0.0
 11
1007.499996
 21
1425.680301
 31
0.0
  0
LINE
  5
120
330
A
100
AcDbEntity
  8
0
  6
Continuous
100
AcDbLine
 10
640.0
 20
1397.430301
 30
0.0
 11
637.5
 21
1397.430301
 31
0.0
  0
LINE
  5
121
330
A
100
AcDbEntity
  8
0
  6
Continuous
100
AcDbLine
 10
640.0
 20
1397.430301
 30
0.0
 11
640.0
 21
1394.430301
 31
0.0
  0
LINE
  5
122
330
A
100
AcDbEntity
  8
0
  6
Continuous
100
AcDbLine
 10
638.0
 20
1392.430301
 30
0.0
 11
625.0
 21
1392.430301
 31
0.0
  0
LINE
  5
123
330
A
100
AcDbEntity
  8
0
  6
Continuous
100
AcDbLine
 10
625.0
 20
1392.430301
 30
0.0
 11
625.0
 21
1407.430301
 31
0.0
  0
LINE
  5
124
330
A
100
AcDbEntity
  8
0
  6
Continuous
100
AcDbLine
 10
625.0
 20
1406.230301
 30
0.0
 11
685.0
 21
1406.230301
 31
0.0
  0
LINE
  5
125
330
A
100
AcDbEntity
  8
0
  6
Continuous
100
AcDbLine
 10
685.0
 20
1407.430301
 30
0.0
 11
685.0
 21
1392.430301
 31
0.0
  0
LINE
  5
126
330
A
100
AcDbEntity
  8
0
  6
Continuous
100
AcDbLine
 10
685.0
 20
1392.430301
 30
0.0
 11
672.0
 21
1392.430301
 31
0.0
  0
LINE
  5
127
330
A
100
AcDbEntity
  8
0
  6
Continuous
100
AcDbLine
 10
670.0
 20
1394.430301
 30
0.0
 11
670.0
 21
1397.430301
 31
0.0
  0
LINE
  5
128
330
A
100
AcDbEntity
  8
0
  6
Continuous
100
AcDbLine
 10
670.0
 20
1397.430301
 30
0.0
 11
672.5
 21
1397.430301
 31
0.0
  0
LINE
  5
129
330
A
100
AcDbEntity
  8
0
  6
Continuous
100
AcDbLine
 10
640.0
 20
1402.430301
 30
0.0
 11
640.0
 21
1406.230301
 31
0.0
  0
LINE
  5
12A
330
A
100
AcDbEntity
  8
0
  6
Continuous
100
AcDbLine
 10
637.5
 20
1402.430301
 30
0.0
 11
640.0
 21
1402.430301
 31
0.0
  0
LINE
  5
12B
330
A
100
AcDbEntity
  8
0
  6
Continuous
100
AcDbLine
 10
625.0
 20
1425.680301
 30
0.0
 11
565.0
 21
1425.680301
 31
0.0
  0
LINE
  5
12C
330
A
100
AcDbEntity
  8
0
  6
Continuous
100
AcDbLine
 10
565.0
 20
1419.180301
 30
0.0
 11
625.0
 21
1419.180301
 31
0.0
  0
LINE
  5
12D
330
A
100
AcDbEntity
  8
0
  6
Continuous
100
AcDbLine
 10
672.5
 20
1402.430301
 30
0.0
 11
670.0
 21
1402.430301
 31
0.0
  0
LINE
  5
12E
330
A
100
AcDbEntity
  8
0
  6
Continuous
100
AcDbLine
 10
670.0
 20
1402.430301
 30
0.0
 11
670.0
 21
1406.230301
 31
0.0
  0
LINE
  5
12F
330
A
100
AcDbEntity
  8
0
  6
Continuous
100
AcDbLine
 10
508.25
 20
1193.930301
 30
0.0
 11
508.25
 21
1362.430301
 31
0.0
  0
LINE
  5
130
330
A
100
AcDbEntity
  8
0
  6
Continuous
100
AcDbLine
 10
501.75
 20
1362.430301
 30
0.0
 11
501.75
 21
1193.930301
 31
0.0
  0
CIRCLE
  5
131
330
A
100
AcDbEntity
  8
0
  6
Continuous
100
AcDbCircle
 10
555.0
 20
1422.430301
 30
0.0
 40
4.5
  0
CIRCLE
  5
132
330
A
100
AcDbEntity
  8
0
  6
Continuous
100
AcDbCircle
 10
515.0
 20
1422.430301
 30
0.0
 40
4.5
  0
CIRCLE
  5
133
330
A
100
AcDbEntity
  8
0
  6
Continuous
100
AcDbCircle
 10
505.0
 20
1412.430301
 30
0.0
 40
4.5
  0
CIRCLE
  5
134
330
A
100
AcDbEntity
  8
0
  6
Continuous
100
AcDbCircle
 10
505.0
 20
1372.430301
 30
0.0
 40
4.5
  0
ARC
  5
135
330
A
100
AcDbEntity
  8
0
  6
Continuous
100
AcDbCircle
 10
637.5
 20
1399.930301
 30
0.0
 40
2.5
100
AcDbArc
 50
90.0
 51
180.0
  0
ARC
  5
136
330
A
100
AcDbEntity
  8
0
  6
Continuous
100
AcDbCircle
 10
637.5
 20
1399.930301
 30
0.0
 40
2.5
100
AcDbArc
 50
180.0
 51
270.0
  0
ARC
  5
137
330
A
100
AcDbEntity
  8
0
  6
Continuous
100
AcDbCircle
 10
672.5
 20
1399.930301
 30
0.0
 40
2.5
100
AcDbArc
 50
0.0
 51
90.0
  0
ARC
  5
138
330
A
100
AcDbEntity
  8
0
  6
Continuous
100
AcDbCircle
 10
672.5
 20
1399.930301
 30
0.0
 40
2.5
100
AcDbArc
 50
270.0
 51
0.0
  0
ARC
  5
139
330
A
100
AcDbEntity
  8
0
  6
Continuous
100
AcDbCircle
 10
638.0
 20
1394.430301
 30
0.0
 40
2.0
100
AcDbArc
 50
270.0
 51
0.0
  0
ARC
  5
13A
330
A
100
AcDbEntity
  8
0
  6
Continuous
100
AcDbCircle
 10
672.0
 20
1394.430301
 30
0.0
 40
2.0
100
AcDbArc
 50
180.0
 51
270.0
  0
LINE
  5
13B
330
A
100
AcDbEntity
  8
0
  6
Continuous
100
AcDbLine
 10
515.0
 20
1412.430301
 30
0.0
 11
565.0
 21
1412.430301
 31
0.0
  0
LINE
  5
13C
330
A
100
AcDbEntity
  8
0
  6
Continuous
100
AcDbLine
 10
565.0
 20
1412.430301
 30
0.0
 11
565.0
 21
1432.430301
 31
0.0
  0
LINE
  5
13D
330
A
100
AcDbEntity
  8
0
  6
Continuous
100
AcDbLine
 10
565.0
 20
1432.430301
 30
0.0
 11
495.0
 21
1432.430301
 31
0.0
  0
LINE
  5
13E
330
A
100
AcDbEntity
  8
0
  6
Continuous
100
AcDbLine
 10
495.0
 20
1432.430301
 30
0.0
 11
495.0
 21
1362.430301
 31
0.0
  0
LINE
  5
13F
330
A
100
AcDbEntity
  8
0
  6
Continuous
100
AcDbLine
 10
495.0
 20
1362.430301
 30
0.0
 11
515.0
 21
1362.430301
 31
0.0
  0
LINE
  5
140
330
A
100
AcDbEntity
  8
0
  6
Continuous
100
AcDbLine
 10
515.0
 20
1362.430301
 30
0.0
 11
515.0
 21
1412.430301
 31
0.0
  0
LINE
  5
141
330
A
100
AcDbEntity
  8
0
  6
Continuous
100
AcDbLine
 10
667.4999999999999
 20
1402.830301
 30
0.0
 11
642.4999999999999
 21
1402.830301
 31
0.0
  0
LINE
  5
142
330
A
100
AcDbEntity
  8
0
  6
Continuous
100
AcDbLine
 10
642.4999999999999
 20
1402.830301
 30
0.0
 11
642.4999999999999
 21
1410.430301
 31
0.0
  0
LINE
  5
143
330
A
100
AcDbEntity
  8
0
  6
Continuous
100
AcDbLine
 10
642.4999999999999
 20
1410.430301
 30
0.0
 11
625.0
 21
1410.430301
 31
0.0
  0
LINE
  5
144
330
A
100
AcDbEntity
  8
0
  6
Continuous
100
AcDbLine
 10
625.0
 20
1410.430301
 30
0.0
 11
625.0
 21
1434.430301
 31
0.0
  0
LINE
  5
145
330
A
100
AcDbEntity
  8
0
  6
Continuous
100
AcDbLine
 10
625.0
 20
1434.430301
 30
0.0
 11
685.0
 21
1434.430301
 31
0.0
  0
LINE
  5
146
330
A
100
AcDbEntity
  8
0
  6
Continuous
100
AcDbLine
 10
685.0
 20
1434.430301
 30
0.0
 11
685.0
 21
1410.430301
 31
0.0
  0
LINE
  5
147
330
A
100
AcDbEntity
  8
0
  6
Continuous
100
AcDbLine
 10
685.0
 20
1410.430301
 30
0.0
 11
667.4999999999999
 21
1410.430301
 31
0.0
  0
LINE
  5
148
330
A
100
AcDbEntity
  8
0
  6
Continuous
100
AcDbLine
 10
667.4999999999999
 20
1410.430301
 30
0.0
 11
667.4999999999999
 21
1402.830301
 31
0.0
  0
LINE
  5
149
330
A
100
AcDbEntity
  8
0
  6
Continuous
100
AcDbLine
 10
667.4999999999999
 20
1404.430301
 30
0.0
 11
642.4999999999999
 21
1404.430301
 31
0.0
  0
LINE
  5
14A
330
A
100
AcDbEntity
  8
0
  6
Continuous
100
AcDbLine
 10
636.6
 20
1410.430301
 30
0.0
 11
636.6
 21
1434.430301
 31
0.0
  0
LINE
  5
14B
330
A
100
AcDbEntity
  8
0
  6
Continuous
100
AcDbLine
 10
635.0
 20
1434.430301
 30
0.0
 11
635.0
 21
1410.430301
 31
0.0
  0
LINE
  5
14C
330
A
100
AcDbEntity
  8
0
  6
Continuous
100
AcDbLine
 10
642.25
 20
1427.430301
 30
0.0
 11
642.25
 21
1417.430301
 31
0.0
  0
LINE
  5
14D
330
A
100
AcDbEntity
  8
0
  6
Continuous
100
AcDbLine
 10
647.75
 20
1417.430301
 30
0.0
 11
647.75
 21
1427.430301
 31
0.0
  0
LINE
  5
14E
330
A
100
AcDbEntity
  8
0
  6
Continuous
100
AcDbLine
 10
662.25
 20
1427.430301
 30
0.0
 11
662.25
 21
1417.430301
 31
0.0
  0
LINE
  5
14F
330
A
100
AcDbEntity
  8
0
  6
Continuous
100
AcDbLine
 10
667.75
 20
1417.430301
 30
0.0
 11
667.75
 21
1427.430301
 31
0.0
  0
LINE
  5
150
330
A
100
AcDbEntity
  8
0
  6
Continuous
100
AcDbLine
 10
673.3999999999999
 20
1410.430301
 30
0.0
 11
673.3999999999999
 21
1434.430301
 31
0.0
  0
LINE
  5
151
330
A
100
AcDbEntity
  8
0
  6
Continuous
100
AcDbLine
 10
675.0
 20
1434.430301
 30
0.0
 11
675.0
 21
1410.430301
 31
0.0
  0
ARC
  5
152
330
A
100
AcDbEntity
  8
0
  6
Continuous
100
AcDbCircle
 10
665.0
 20
1427.430301
 30
0.0
 40
2.75
100
AcDbArc
 50
0.0
 51
180.0
  0
ARC
  5
153
330
A
100
AcDbEntity
  8
0
  6
Continuous
100
AcDbCircle
 10
665.0
 20
1417.430301
 30
0.0
 40
2.75
100
AcDbArc
 50
180.0
 51
0.0
  0
ARC
  5
154
330
A
100
AcDbEntity
  8
0
  6
Continuous
100
AcDbCircle
 10
645.0
 20
1427.430301
 30
0.0
 40
2.75
100
AcDbArc
 50
0.0
 51
180.0
  0
ARC
  5
155
330
A
100
AcDbEntity
  8
0
  6
Continuous
100
AcDbCircle
 10
645.0
 20
1417.430301
 30
0.0
 40
2.75
100
AcDbArc
 50
180.0
 51
0.0
  0
LINE
  5
156
330
A
100
AcDbEntity
  8
0
  6
Continuous
100
AcDbLine
 10
1414.39999
 20
921.2303009999999
 30
0.0
 11
1435.59999
 21
921.2303009999999
 31
0.0
  0
LINE
  5
157
330
A
100
AcDbEntity
  8
0
  6
Continuous
100
AcDbLine
 10
1435.59999
 20
921.2303009999999
 30
0.0
 11
1562.84355
 21
921.2303009999999
 31
0.0
  0
LINE
  5
158
330
A
100
AcDbEntity
  8
0
  6
Continuous
100
AcDbLine
 10
1562.84355
 20
923.030301
 30
0.0
 11
1435.59999
 21
923.030301
 31
0.0
  0
LINE
  5
159
330
A
100
AcDbEntity
  8
0
  6
Continuous
100
AcDbLine
 10
1435.59999
 20
923.030301
 30
0.0
 11
1414.39999
 21
923.030301
 31
0.0
  0
LINE
  5
15A
330
A
100
AcDbEntity
  8
0
  6
Continuous
100
AcDbLine
 10
1414.39999
 20
924.8303009999998
 30
0.0
 11
1435.59999
 21
924.8303009999998
 31
0.0
  0
LINE
  5
15B
330
A
100
AcDbEntity
  8
0
  6
Continuous
100
AcDbLine
 10
1435.59999
 20
926.6303009999999
 30
0.0
 11
1414.39999
 21
926.6303009999999
 31
0.0
  0
LINE
  5
15C
330
A
100
AcDbEntity
  8
0
  6
Continuous
100
AcDbLine
 10
1414.39999
 20
926.6303009999999
 30
0.0
 11
1287.15643
 21
926.6303009999999
 31
0.0
  0
LINE
  5
15D
330
A
100
AcDbEntity
  8
0
  6
Continuous
100
AcDbLine
 10
1287.15643
 20
924.8303009999998
 30
0.0
 11
1414.39999
 21
924.8303009999998
 31
0.0
  0
CIRCLE
  5
15E
330
A
100
AcDbEntity
  8
0
  6
Continuous
100
AcDbCircle
 10
1414.39999
 20
923.930301
 30
0.0
 40
0.9
  0
CIRCLE
  5
15F
330
A
100
AcDbEntity
  8
0
  6
Continuous
100
AcDbCircle
 10
1414.39999
 20
922.1303009999999
 30
0.0
 40
0.9
  0
CIRCLE
  5
160
330
A
100
AcDbEntity
  8
0
  6
Continuous
100
AcDbCircle
 10
1414.39999
 20
925.7303009999999
 30
0.0
 40
0.9
  0
CIRCLE
  5
161
330
A
100
AcDbEntity
  8
0
  6
Continuous
100
AcDbCircle
 10
1435.59999
 20
923.930301
 30
0.0
 40
0.9
  0
CIRCLE
  5
162
330
A
100
AcDbEntity
  8
0
  6
Continuous
100
AcDbCircle
 10
1435.59999
 20
922.1303009999999
 30
0.0
 40
0.9
  0
CIRCLE
  5
163
330
A
100
AcDbEntity
  8
0
  6
Continuous
100
AcDbCircle
 10
1435.59999
 20
925.7303009999999
 30
0.0
 40
0.9
  0
CIRCLE
  5
164
330
A
100
AcDbEntity
  8
0
  6
Continuous
100
AcDbCircle
 10
1562.84355
 20
922.1303009999999
 30
0.0
 40
0.9
  0
CIRCLE
  5
165
330
A
100
AcDbEntity
  8
0
  6
Continuous
100
AcDbCircle
 10
1287.15643
 20
925.7303009999999
 30
0.0
 40
0.9
  0
LINE
  5
166
330
A
100
AcDbEntity
  8
0
  6
Continuous
100
AcDbLine
 10
1072.499996
 20
898.180301
 30
0.0
 11
1394.99999
 21
898.180301
 31
0.0
  0
LINE
  5
167
330
A
100
AcDbEntity
  8
0
  6
Continuous
100
AcDbLine
 10
1394.99999
 20
904.6803009999999
 30
0.0
 11
1072.499996
 21
904.6803009999999
 31
0.0
  0
LINE
  5
168
330
A
100
AcDbEntity
  8
0
  6
Continuous
100
AcDbLine
 10
1439.99999
 20
926.430301
 30
0.0
 11
1442.49999
 21
926.430301
 31
0.0
  0
LINE
  5
169
330
A
100
AcDbEntity
  8
0
  6
Continuous
100
AcDbLine
 10
1439.99999
 20
926.430301
 30
0.0
 11
1439.99999
 21
929.430301
 31
0.0
  0
LINE
  5
16A
330
A
100
AcDbEntity
  8
0
  6
Continuous
100
AcDbLine
 10
1441.99999
 20
931.4303009999999
 30
0.0
 11
1454.99999
 21
931.4303009999999
 31
0.0
  0
LINE
  5
16B
330
A
100
AcDbEntity
  8
0
  6
Continuous
100
AcDbLine
 10
1454.99999
 20
931.4303009999999
 30
0.0
 11
1454.99999
 21
916.4303009999999
 31
0.0
  0
LINE
  5
16C
330
A
100
AcDbEntity
  8
0
  6
Continuous
100
AcDbLine
 10
1454.99999
 20
917.6303009999999
 30
0.0
 11
1394.99999
 21
917.6303009999999
 31
0.0
  0
LINE
  5
16D
330
A
100
AcDbEntity
  8
0
  6
Continuous
100
AcDbLine
 10
1394.99999
 20
916.4303009999999
 30
0.0
 11
1394.99999
 21
931.4303009999999
 31
0.0
  0
LINE
  5
16E
330
A
100
AcDbEntity
  8
0
  6
Continuous
100
AcDbLine
 10
1394.99999
 20
931.4303009999999
 30
0.0
 11
1407.99999
 21
931.4303009999999
 31
0.0
  0
LINE
  5
16F
330
A
100
AcDbEntity
  8
0
  6
Continuous
100
AcDbLine
 10
1409.99999
 20
929.430301
 30
0.0
 11
1409.99999
 21
926.430301
 31
0.0
  0
LINE
  5
170
330
A
100
AcDbEntity
  8
0
  6
Continuous
100
AcDbLine
 10
1409.99999
 20
926.430301
 30
0.0
 11
1407.49999
 21
926.430301
 31
0.0
  0
LINE
  5
171
330
A
100
AcDbEntity
  8
0
  6
Continuous
100
AcDbLine
 10
1439.99999
 20
921.430301
 30
0.0
 11
1439.99999
 21
917.6303009999999
 31
0.0
  0
LINE
  5
172
330
A
100
AcDbEntity
  8
0
  6
Continuous
100
AcDbLine
 10
1442.49999
 20
921.430301
 30
0.0
 11
1439.99999
 21
921.430301
 31
0.0
  0
LINE
  5
173
330
A
100
AcDbEntity
  8
0
  6
Continuous
100
AcDbLine
 10
1409.99999
 20
917.6303009999999
 30
0.0
 11
1409.99999
 21
921.430301
 31
0.0
  0
LINE
  5
174
330
A
100
AcDbEntity
  8
0
  6
Continuous
100
AcDbLine
 10
1409.99999
 20
921.430301
 30
0.0
 11
1407.49999
 21
921.430301
 31
0.0
  0
LINE
  5
175
330
A
100
AcDbEntity
  8
0
  6
Continuous
100
AcDbLine
 10
1578.49999
 20
1193.930301
 30
0.0
 11
1585.49999
 21
1193.930301
 31
0.0
  0
LINE
  5
176
330
A
100
AcDbEntity
  8
0
  6
Continuous
100
AcDbLine
 10
1585.49999
 20
1193.930301
 30
0.0
 11
1585.49999
 21
1128.930301
 31
0.0
  0
LINE
  5
177
330
A
100
AcDbEntity
  8
0
  6
Continuous
100
AcDbLine
 10
1585.49999
 20
1128.930301
 30
0.0
 11
1578.49999
 21
1128.930301
 31
0.0
  0
LINE
  5
178
330
A
100
AcDbEntity
  8
0
  6
Continuous
100
AcDbLine
 10
1578.24999
 20
1128.930301
 30
0.0
 11
1578.24999
 21
961.430301
 31
0.0
  0
LINE
  5
179
330
A
100
AcDbEntity
  8
0
  6
Continuous
100
AcDbLine
 10
1571.74999
 20
961.430301
 30
0.0
 11
1571.74999
 21
1128.930301
 31
0.0
  0
LINE
  5
17A
330
A
100
AcDbEntity
  8
0
  6
Continuous
100
AcDbLine
 10
1571.49999
 20
1128.930301
 30
0.0
 11
1564.49999
 21
1128.930301
 31
0.0
  0
LINE
  5
17B
330
A
100
AcDbEntity
  8
0
  6
Continuous
100
AcDbLine
 10
1564.49999
 20
1128.930301
 30
0.0
 11
1564.49999
 21
1193.930301
 31
0.0
  0
LINE
  5
17C
330
A
100
AcDbEntity
  8
0
  6
Continuous
100
AcDbLine
 10
1564.49999
 20
1193.930301
 30
0.0
 11
1571.49999
 21
1193.930301
 31
0.0
  0
LINE
  5
17D
330
A
100
AcDbEntity
  8
0
  6
Continuous
100
AcDbLine
 10
1514.99999
 20
898.180301
 30
0.0
 11
1454.99999
 21
898.180301
 31
0.0
  0
LINE
  5
17E
330
A
100
AcDbEntity
  8
0
  6
Continuous
100
AcDbLine
 10
1454.99999
 20
904.6803009999999
 30
0.0
 11
1514.99999
 21
904.6803009999999
 31
0.0
  0
CIRCLE
  5
17F
330
A
100
AcDbEntity
  8
0
  6
Continuous
100
AcDbCircle
 10
1524.99999
 20
901.430301
 30
0.0
 40
4.5
  0
CIRCLE
  5
180
330
A
100
AcDbEntity
  8
0
  6
Continuous
100
AcDbCircle
 10
1564.99999
 20
901.430301
 30
0.0
 40
4.5
  0
CIRCLE
  5
181
330
A
100
AcDbEntity
  8
0
  6
Continuous
100
AcDbCircle
 10
1574.99999
 20
911.430301
 30
0.0
 40
4.5
  0
CIRCLE
  5
182
330
A
100
AcDbEntity
  8
0
  6
Continuous
100
AcDbCircle
 10
1574.99999
 20
951.430301
 30
0.0
 40
4.5
  0
ARC
  5
183
330
A
100
AcDbEntity
  8
0
  6
Continuous
100
AcDbCircle
 10
1407.49999
 20
923.930301
 30
0.0
 40
2.5
100
AcDbArc
 50
180.0
 51
270.0
  0
ARC
  5
184
330
A
100
AcDbEntity
  8
0
  6
Continuous
100
AcDbCircle
 10
1407.49999
 20
923.930301
 30
0.0
 40
2.5
100
AcDbArc
 50
90.0
 51
180.0
  0
ARC
  5
185
330
A
100
AcDbEntity
  8
0
  6
Continuous
100
AcDbCircle
 10
1442.49999
 20
923.930301
 30
0.0
 40
2.5
100
AcDbArc
 50
270.0
 51
0.0
  0
ARC
  5
186
330
A
100
AcDbEntity
  8
0
  6
Continuous
100
AcDbCircle
 10
1442.49999
 20
923.930301
 30
0.0
 40
2.5
100
AcDbArc
 50
0.0
 51
90.0
  0
ARC
  5
187
330
A
100
AcDbEntity
  8
0
  6
Continuous
100
AcDbCircle
 10
1407.99999
 20
929.430301
 30
0.0
 40
2.0
100
AcDbArc
 50
0.0
 51
90.0
  0
ARC
  5
188
330
A
100
AcDbEntity
  8
0
  6
Continuous
100
AcDbCircle
 10
1441.99999
 20
929.430301
 30
0.0
 40
2.0
100
AcDbArc
 50
90.0
 51
180.0
  0
LINE
  5
189
330
A
100
AcDbEntity
  8
0
  6
Continuous
100
AcDbLine
 10
1564.99999
 20
911.430301
 30
0.0
 11
1514.99999
 21
911.430301
 31
0.0
  0
LINE
  5
18A
330
A
100
AcDbEntity
  8
0
  6
Continuous
100
AcDbLine
 10
1514.99999
 20
911.430301
 30
0.0
 11
1514.99999
 21
891.4303009999999
 31
0.0
  0
LINE
  5
18B
330
A
100
AcDbEntity
  8
0
  6
Continuous
100
AcDbLine
 10
1514.99999
 20
891.4303009999999
 30
0.0
 11
1584.99999
 21
891.4303009999999
 31
0.0
  0
LINE
  5
18C
330
A
100
AcDbEntity
  8
0
  6
Continuous
100
AcDbLine
 10
1584.99999
 20
891.4303009999999
 30
0.0
 11
1584.99999
 21
961.430301
 31
0.0
  0
LINE
  5
18D
330
A
100
AcDbEntity
  8
0
  6
Continuous
100
AcDbLine
 10
1584.99999
 20
961.430301
 30
0.0
 11
1564.99999
 21
961.430301
 31
0.0
  0
LINE
  5
18E
330
A
100
AcDbEntity
  8
0
  6
Continuous
100
AcDbLine
 10
1564.99999
 20
961.430301
 30
0.0
 11
1564.99999
 21
911.430301
 31
0.0
  0
LINE
  5
18F
330
A
100
AcDbEntity
  8
0
  6
Continuous
100
AcDbLine
 10
1412.49999
 20
921.030301
 30
0.0
 11
1412.49999
 21
913.430301
 31
0.0
  0
LINE
  5
190
330
A
100
AcDbEntity
  8
0
  6
Continuous
100
AcDbLine
 10
1412.49999
 20
913.430301
 30
0.0
 11
1394.99999
 21
913.430301
 31
0.0
  0
LINE
  5
191
330
A
100
AcDbEntity
  8
0
  6
Continuous
100
AcDbLine
 10
1394.99999
 20
913.430301
 30
0.0
 11
1394.99999
 21
889.4303009999999
 31
0.0
  0
LINE
  5
192
330
A
100
AcDbEntity
  8
0
  6
Continuous
100
AcDbLine
 10
1394.99999
 20
889.4303009999999
 30
0.0
 11
1454.99999
 21
889.4303009999999
 31
0.0
  0
LINE
  5
193
330
A
100
AcDbEntity
  8
0
  6
Continuous
100
AcDbLine
 10
1454.99999
 20
889.4303009999999
 30
0.0
 11
1454.99999
 21
913.430301
 31
0.0
  0
LINE
  5
194
330
A
100
AcDbEntity
  8
0
  6
Continuous
100
AcDbLine
 10
1454.99999
 20
913.430301
 30
0.0
 11
1437.49999
 21
913.430301
 31
0.0
  0
LINE
  5
195
330
A
100
AcDbEntity
  8
0
  6
Continuous
100
AcDbLine
 10
1437.49999
 20
913.430301
 30
0.0
 11
1437.49999
 21
921.030301
 31
0.0
  0
LINE
  5
196
330
A
100
AcDbEntity
  8
0
  6
Continuous
100
AcDbLine
 10
1437.49999
 20
921.030301
 30
0.0
 11
1412.49999
 21
921.030301
 31
0.0
  0
LINE
  5
197
330
A
100
AcDbEntity
  8
0
  6
Continuous
100
AcDbLine
 10
1412.49999
 20
919.430301
 30
0.0
 11
1437.49999
 21
919.430301
 31
0.0
  0
LINE
  5
198
330
A
100
AcDbEntity
  8
0
  6
Continuous
100
AcDbLine
 10
1443.39999
 20
913.430301
 30
0.0
 11
1443.39999
 21
889.4303009999999
 31
0.0
  0
LINE
  5
199
330
A
100
AcDbEntity
  8
0
  6
Continuous
100
AcDbLine
 10
1444.99999
 20
889.4303009999999
 30
0.0
 11
1444.99999
 21
913.430301
 31
0.0
  0
LINE
  5
19A
330
A
100
AcDbEntity
  8
0
  6
Continuous
100
AcDbLine
 10
1432.24999
 20
896.430301
 30
0.0
 11
1432.24999
 21
906.4303009999999
 31
0.0
  0
LINE
  5
19B
330
A
100
AcDbEntity
  8
0
  6
Continuous
100
AcDbLine
 10
1437.74999
 20
906.4303009999999
 30
0.0
 11
1437.74999
 21
896.430301
 31
0.0
  0
LINE
  5
19C
330
A
100
AcDbEntity
  8
0
  6
Continuous
100
AcDbLine
 10
1412.24999
 20
896.430301
 30
0.0
 11
1412.24999
 21
906.4303009999999
 31
0.0
  0
LINE
  5
19D
330
A
100
AcDbEntity
  8
0
  6
Continuous
100
AcDbLine
 10
1417.74999
 20
906.4303009999999
 30
0.0
 11
1417.74999
 21
896.430301
 31
0.0
  0
LINE
  5
19E
330
A
100
AcDbEntity
  8
0
  6
Continuous
100
AcDbLine
 10
1406.59999
 20
913.430301
 30
0.0
 11
1406.59999
 21
889.4303009999999
 31
0.0
  0
LINE
  5
19F
330
A
100
AcDbEntity
  8
0
  6
Continuous
100
AcDbLine
 10
1404.99999
 20
889.4303009999999
 30
0.0
 11
1404.99999
 21
913.430301
 31
0.0
  0
ARC
  5
1A0
330
A
100
AcDbEntity
  8
0
  6
Continuous
100
AcDbCircle
 10
1434.99999
 20
896.430301
 30
0.0
 40
2.75
100
AcDbArc
 50
180.0
 51
0.0
  0
ARC
  5
1A1
330
A
100
AcDbEntity
  8
0
  6
Continuous
100
AcDbCircle
 10
1434.99999
 20
906.4303009999999
 30
0.0
 40
2.75
100
AcDbArc
 50
0.0
 51
180.0
  0
ARC
  5
1A2
330
A
100
AcDbEntity
  8
0
  6
Continuous
100
AcDbCircle
 10
1414.99999
 20
896.430301
 30
0.0
 40
2.75
100
AcDbArc
 50
180.0
 51
0.0
  0
ARC
  5
1A3
330
A
100
AcDbEntity
  8
0
  6
Continuous
100
AcDbCircle
 10
1414.99999
 20
906.4303009999999
 30
0.0
 40
2.75
100
AcDbArc
 50
0.0
 51
180.0
  0
LINE
  5
1A4
330
A
100
AcDbEntity
  8
0
  6
Continuous
100
AcDbLine
 10
1562.84355
 20
1397.230301
 30
0.0
 11
1435.59999
 21
1397.230301
 31
0.0
  0
LINE
  5
1A5
330
A
100
AcDbEntity
  8
0
  6
Continuous
100
AcDbLine
 10
1435.59999
 20
1397.230301
 30
0.0
 11
1414.39999
 21
1397.230301
 31
0.0
  0
LINE
  5
1A6
330
A
100
AcDbEntity
  8
0
  6
Continuous
100
AcDbLine
 10
1414.39999
 20
1402.630301
 30
0.0
 11
1435.59999
 21
1402.630301
 31
0.0
  0
LINE
  5
1A7
330
A
100
AcDbEntity
  8
0
  6
Continuous
100
AcDbLine
 10
1435.59999
 20
1399.030301
 30
0.0
 11
1414.39999
 21
1399.030301
 31
0.0
  0
LINE
  5
1A8
330
A
100
AcDbEntity
  8
0
  6
Continuous
100
AcDbLine
 10
1414.39999
 20
1400.830301
 30
0.0
 11
1435.59999
 21
1400.830301
 31
0.0
  0
LINE
  5
1A9
330
A
100
AcDbEntity
  8
0
  6
Continuous
100
AcDbLine
 10
1435.59999
 20
1399.030301
 30
0.0
 11
1562.84355
 21
1399.030301
 31
0.0
  0
LINE
  5
1AA
330
A
100
AcDbEntity
  8
0
  6
Continuous
100
AcDbLine
 10
1287.15643
 20
1402.630301
 30
0.0
 11
1414.39999
 21
1402.630301
 31
0.0
  0
LINE
  5
1AB
330
A
100
AcDbEntity
  8
0
  6
Continuous
100
AcDbLine
 10
1414.39999
 20
1400.830301
 30
0.0
 11
1287.15643
 21
1400.830301
 31
0.0
  0
CIRCLE
  5
1AC
330
A
100
AcDbEntity
  8
0
  6
Continuous
100
AcDbCircle
 10
1435.59999
 20
1399.930301
 30
0.0
 40
0.9
  0
CIRCLE
  5
1AD
330
A
100
AcDbEntity
  8
0
  6
Continuous
100
AcDbCircle
 10
1435.59999
 20
1401.730301
 30
0.0
 40
0.9
  0
CIRCLE
  5
1AE
330
A
100
AcDbEntity
  8
0
  6
Continuous
100
AcDbCircle
 10
1435.59999
 20
1398.130301
 30
0.0
 40
0.9
  0
CIRCLE
  5
1AF
330
A
100
AcDbEntity
  8
0
  6
Continuous
100
AcDbCircle
 10
1414.39999
 20
1399.930301
 30
0.0
 40
0.9
  0
CIRCLE
  5
1B0
330
A
100
AcDbEntity
  8
0
  6
Continuous
100
AcDbCircle
 10
1414.39999
 20
1401.730301
 30
0.0
 40
0.9
  0
CIRCLE
  5
1B1
330
A
100
AcDbEntity
  8
0
  6
Continuous
100
AcDbCircle
 10
1414.39999
 20
1398.130301
 30
0.0
 40
0.9
  0
CIRCLE
  5
1B2
330
A
100
AcDbEntity
  8
0
  6
Continuous
100
AcDbCircle
 10
1287.15643
 20
1401.730301
 30
0.0
 40
0.9
  0
CIRCLE
  5
1B3
330
A
100
AcDbEntity
  8
0
  6
Continuous
100
AcDbCircle
 10
1562.84355
 20
1398.130301
 30
0.0
 40
0.9
  0
LINE
  5
1B4
330
A
100
AcDbEntity
  8
0
  6
Continuous
100
AcDbLine
 10
1589.99999
 20
1437.430301
 30
0.0
 11
1589.99999
 21
886.430301
 31
0.0
  0
LINE
  5
1B5
330
A
100
AcDbEntity
  8
0
  6
Continuous
100
AcDbLine
 10
1559.99999
 20
1407.430301
 30
0.0
 11
1559.99999
 21
916.4303009999999
 31
0.0
  0
LINE
  5
1B6
330
A
100
AcDbEntity
  8
0
  6
Continuous
100
AcDbLine
 10
1409.99999
 20
1397.430301
 30
0.0
 11
1407.49999
 21
1397.430301
 31
0.0
  0
LINE
  5
1B7
330
A
100
AcDbEntity
  8
0
  6
Continuous
100
AcDbLine
 10
1409.99999
 20
1397.430301
 30
0.0
 11
1409.99999
 21
1394.430301
 31
0.0
  0
LINE
  5
1B8
330
A
100
AcDbEntity
  8
0
  6
Continuous
100
AcDbLine
 10
1407.99999
 20
1392.430301
 30
0.0
 11
1394.99999
 21
1392.430301
 31
0.0
  0
LINE
  5
1B9
330
A
100
AcDbEntity
  8
0
  6
Continuous
100
AcDbLine
 10
1394.99999
 20
1392.430301
 30
0.0
 11
1394.99999
 21
1407.430301
 31
0.0
  0
LINE
  5
1BA
330
A
100
AcDbEntity
  8
0
  6
Continuous
100
AcDbLine
 10
1394.99999
 20
1406.230301
 30
0.0
 11
1454.99999
 21
1406.230301
 31
0.0
  0
LINE
  5
1BB
330
A
100
AcDbEntity
  8
0
  6
Continuous
100
AcDbLine
 10
1454.99999
 20
1407.430301
 30
0.0
 11
1454.99999
 21
1392.430301
 31
0.0
  0
LINE
  5
1BC
330
A
100
AcDbEntity
  8
0
  6
Continuous
100
AcDbLine
 10
1454.99999
 20
1392.430301
 30
0.0
 11
1441.99999
 21
1392.430301
 31
0.0
  0
LINE
  5
1BD
330
A
100
AcDbEntity
  8
0
  6
Continuous
100
AcDbLine
 10
1439.99999
 20
1394.430301
 30
0.0
 11
1439.99999
 21
1397.430301
 31
0.0
  0
LINE
  5
1BE
330
A
100
AcDbEntity
  8
0
  6
Continuous
100
AcDbLine
 10
1439.99999
 20
1397.430301
 30
0.0
 11
1442.49999
 21
1397.430301
 31
0.0
  0
LINE
  5
1BF
330
A
100
AcDbEntity
  8
0
  6
Continuous
100
AcDbLine
 10
1072.499996
 20
1425.680301
 30
0.0
 11
1394.99999
 21
1425.680301
 31
0.0
  0
LINE
  5
1C0
330
A
100
AcDbEntity
  8
0
  6
Continuous
100
AcDbLine
 10
1394.99999
 20
1419.180301
 30
0.0
 11
1072.499996
 21
1419.180301
 31
0.0
  0
LINE
  5
1C1
330
A
100
AcDbEntity
  8
0
  6
Continuous
100
AcDbLine
 10
1514.99999
 20
1419.180301
 30
0.0
 11
1454.99999
 21
1419.180301
 31
0.0
  0
LINE
  5
1C2
330
A
100
AcDbEntity
  8
0
  6
Continuous
100
AcDbLine
 10
1454.99999
 20
1425.680301
 30
0.0
 11
1514.99999
 21
1425.680301
 31
0.0
  0
LINE
  5
1C3
330
A
100
AcDbEntity
  8
0
  6
Continuous
100
AcDbLine
 10
1409.99999
 20
1406.230301
 30
0.0
 11
1409.99999
 21
1402.430301
 31
0.0
  0
LINE
  5
1C4
330
A
100
AcDbEntity
  8
0
  6
Continuous
100
AcDbLine
 10
1409.99999
 20
1402.430301
 30
0.0
 11
1407.49999
 21
1402.430301
 31
0.0
  0
LINE
  5
1C5
330
A
100
AcDbEntity
  8
0
  6
Continuous
100
AcDbLine
 10
1442.49999
 20
1402.430301
 30
0.0
 11
1439.99999
 21
1402.430301
 31
0.0
  0
LINE
  5
1C6
330
A
100
AcDbEntity
  8
0
  6
Continuous
100
AcDbLine
 10
1439.99999
 20
1402.430301
 30
0.0
 11
1439.99999
 21
1406.230301
 31
0.0
  0
LINE
  5
1C7
330
A
100
AcDbEntity
  8
0
  6
Continuous
100
AcDbLine
 10
1578.24999
 20
1362.430301
 30
0.0
 11
1578.24999
 21
1193.930301
 31
0.0
  0
LINE
  5
1C8
330
A
100
AcDbEntity
  8
0
  6
Continuous
100
AcDbLine
 10
1571.74999
 20
1193.930301
 30
0.0
 11
1571.74999
 21
1362.430301
 31
0.0
  0
CIRCLE
  5
1C9
330
A
100
AcDbEntity
  8
0
  6
Continuous
100
AcDbCircle
 10
1524.99999
 20
1422.430301
 30
0.0
 40
4.5
  0
CIRCLE
  5
1CA
330
A
100
AcDbEntity
  8
0
  6
Continuous
100
AcDbCircle
 10
1564.99999
 20
1422.430301
 30
0.0
 40
4.5
  0
CIRCLE
  5
1CB
330
A
100
AcDbEntity
  8
0
  6
Continuous
100
AcDbCircle
 10
1574.99999
 20
1412.430301
 30
0.0
 40
4.5
  0
CIRCLE
  5
1CC
330
A
100
AcDbEntity
  8
0
  6
Continuous
100
AcDbCircle
 10
1574.99999
 20
1372.430301
 30
0.0
 40
4.5
  0
ARC
  5
1CD
330
A
100
AcDbEntity
  8
0
  6
Continuous
100
AcDbCircle
 10
1407.49999
 20
1399.930301
 30
0.0
 40
2.5
100
AcDbArc
 50
90.0
 51
180.0
  0
ARC
  5
1CE
330
A
100
AcDbEntity
  8
0
  6
Continuous
100
AcDbCircle
 10
1407.49999
 20
1399.930301
 30
0.0
 40
2.5
100
AcDbArc
 50
180.0
 51
270.0
  0
ARC
  5
1CF
330
A
100
AcDbEntity
  8
0
  6
Continuous
100
AcDbCircle
 10
1442.49999
 20
1399.930301
 30
0.0
 40
2.5
100
AcDbArc
 50
0.0
 51
90.0
  0
ARC
  5
1D0
330
A
100
AcDbEntity
  8
0
  6
Continuous
100
AcDbCircle
 10
1442.49999
 20
1399.930301
 30
0.0
 40
2.5
100
AcDbArc
 50
270.0
 51
0.0
  0
ARC
  5
1D1
330
A
100
AcDbEntity
  8
0
  6
Continuous
100
AcDbCircle
 10
1407.99999
 20
1394.430301
 30
0.0
 40
2.0
100
AcDbArc
 50
270.0
 51
0.0
  0
ARC
  5
1D2
330
A
100
AcDbEntity
  8
0
  6
Continuous
100
AcDbCircle
 10
1441.99999
 20
1394.430301
 30
0.0
 40
2.0
100
AcDbArc
 50
180.0
 51
270.0
  0
LINE
  5
1D3
330
A
100
AcDbEntity
  8
0
  6
Continuous
100
AcDbLine
 10
1584.99999
 20
1432.430301
 30
0.0
 11
1584.99999
 21
1362.430301
 31
0.0
  0
LINE
  5
1D4
330
A
100
AcDbEntity
  8
0
  6
Continuous
100
AcDbLine
 10
1584.99999
 20
1362.430301
 30
0.0
 11
1564.99999
 21
1362.430301
 31
0.0
  0
LINE
  5
1D5
330
A
100
AcDbEntity
  8
0
  6
Continuous
100
AcDbLine
 10
1564.99999
 20
1362.430301
 30
0.0
 11
1564.99999
 21
1412.430301
 31
0.0
  0
LINE
  5
1D6
330
A
100
AcDbEntity
  8
0
  6
Continuous
100
AcDbLine
 10
1564.99999
 20
1412.430301
 30
0.0
 11
1514.99999
 21
1412.430301
 31
0.0
  0
LINE
  5
1D7
330
A
100
AcDbEntity
  8
0
  6
Continuous
100
AcDbLine
 10
1514.99999
 20
1412.430301
 30
0.0
 11
1514.99999
 21
1432.430301
 31
0.0
  0
LINE
  5
1D8
330
A
100
AcDbEntity
  8
0
  6
Continuous
100
AcDbLine
 10
1514.99999
 20
1432.430301
 30
0.0
 11
1584.99999
 21
1432.430301
 31
0.0
  0
LINE
  5
1D9
330
A
100
AcDbEntity
  8
0
  6
Continuous
100
AcDbLine
 10
1454.99999
 20
1434.430301
 30
0.0
 11
1454.99999
 21
1410.430301
 31
0.0
  0
LINE
  5
1DA
330
A
100
AcDbEntity
  8
0
  6
Continuous
100
AcDbLine
 10
1454.99999
 20
1410.430301
 30
0.0
 11
1437.49999
 21
1410.430301
 31
0.0
  0
LINE
  5
1DB
330
A
100
AcDbEntity
  8
0
  6
Continuous
100
AcDbLine
 10
1437.49999
 20
1410.430301
 30
0.0
 11
1437.49999
 21
1402.830301
 31
0.0
  0
LINE
  5
1DC
330
A
100
AcDbEntity
  8
0
  6
Continuous
100
AcDbLine
 10
1437.49999
 20
1402.830301
 30
0.0
 11
1412.49999
 21
1402.830301
 31
0.0
  0
LINE
  5
1DD
330
A
100
AcDbEntity
  8
0
  6
Continuous
100
AcDbLine
 10
1412.49999
 20
1402.830301
 30
0.0
 11
1412.49999
 21
1410.430301
 31
0.0
  0
LINE
  5
1DE
330
A
100
AcDbEntity
  8
0
  6
Continuous
100
AcDbLine
 10
1412.49999
 20
1410.430301
 30
0.0
 11
1394.99999
 21
1410.430301
 31
0.0
  0
LINE
  5
1DF
330
A
100
AcDbEntity
  8
0
  6
Continuous
100
AcDbLine
 10
1394.99999
 20
1410.430301
 30
0.0
 11
1394.99999
 21
1434.430301
 31
0.0
  0
LINE
  5
1E0
330
A
100
AcDbEntity
  8
0
  6
Continuous
100
AcDbLine
 10
1394.99999
 20
1434.430301
 30
0.0
 11
1454.99999
 21
1434.430301
 31
0.0
  0
LINE
  5
1E1
330
A
100
AcDbEntity
  8
0
  6
Continuous
100
AcDbLine
 10
1444.99999
 20
1434.430301
 30
0.0
 11
1444.99999
 21
1410.430301
 31
0.0
  0
LINE
  5
1E2
330
A
100
AcDbEntity
  8
0
  6
Continuous
100
AcDbLine
 10
1443.39999
 20
1410.430301
 30
0.0
 11
1443.39999
 21
1434.430301
 31
0.0
  0
LINE
  5
1E3
330
A
100
AcDbEntity
  8
0
  6
Continuous
100
AcDbLine
 10
1432.24999
 20
1417.430301
 30
0.0
 11
1432.24999
 21
1427.430301
 31
0.0
  0
LINE
  5
1E4
330
A
100
AcDbEntity
  8
0
  6
Continuous
100
AcDbLine
 10
1437.74999
 20
1427.430301
 30
0.0
 11
1437.74999
 21
1417.430301
 31
0.0
  0
LINE
  5
1E5
330
A
100
AcDbEntity
  8
0
  6
Continuous
100
AcDbLine
 10
1412.24999
 20
1417.430301
 30
0.0
 11
1412.24999
 21
1427.430301
 31
0.0
  0
LINE
  5
1E6
330
A
100
AcDbEntity
  8
0
  6
Continuous
100
AcDbLine
 10
1417.74999
 20
1427.430301
 30
0.0
 11
1417.74999
 21
1417.430301
 31
0.0
  0
LINE
  5
1E7
330
A
100
AcDbEntity
  8
0
  6
Continuous
100
AcDbLine
 10
1406.59999
 20
1434.430301
 30
0.0
 11
1406.59999
 21
1410.430301
 31
0.0
  0
LINE
  5
1E8
330
A
100
AcDbEntity
  8
0
  6
Continuous
100
AcDbLine
 10
1404.99999
 20
1410.430301
 30
0.0
 11
1404.99999
 21
1434.430301
 31
0.0
  0
LINE
  5
1E9
330
A
100
AcDbEntity
  8
0
  6
Continuous
100
AcDbLine
 10
1412.49999
 20
1404.430301
 30
0.0
 11
1437.49999
 21
1404.430301
 31
0.0
  0
ARC
  5
1EA
330
A
100
AcDbEntity
  8
0
  6
Continuous
100
AcDbCircle
 10
1434.99999
 20
1427.430301
 30
0.0
 40
2.75
100
AcDbArc
 50
0.0
 51
180.0
  0
ARC
  5
1EB
330
A
100
AcDbEntity
  8
0
  6
Continuous
100
AcDbCircle
 10
1434.99999
 20
1417.430301
 30
0.0
 40
2.75
100
AcDbArc
 50
180.0
 51
0.0
  0
ARC
  5
1EC
330
A
100
AcDbEntity
  8
0
  6
Continuous
100
AcDbCircle
 10
1414.99999
 20
1427.430301
 30
0.0
 40
2.75
100
AcDbArc
 50
0.0
 51
180.0
  0
ARC
  5
1ED
330
A
100
AcDbEntity
  8
0
  6
Continuous
100
AcDbCircle
 10
1414.99999
 20
1417.430301
 30
0.0
 40
2.75
100
AcDbArc
 50
180.0
 51
0.0
  0
LINE
  5
1EE
330
A
100
AcDbEntity
  8
0
  6
Continuous
100
AcDbLine
 10
1589.99999
 20
886.430301
 30
0.0
 11
490.0
 21
886.430301
 31
0.0
  0
LINE
  5
1EF
330
A
100
AcDbEntity
  8
0
  6
Continuous
100
AcDbLine
 10
1559.99999
 20
916.4303009999999
 30
0.0
 11
520.0
 21
916.4303009999999
 31
0.0
  0
LINE
  5
1F0
330
A
100
AcDbEntity
  8
0
  6
Continuous
100
AcDbLine
 10
490.0
 20
1437.430301
 30
0.0
 11
1589.99999
 21
1437.430301
 31
0.0
  0
LINE
  5
1F1
330
A
100
AcDbEntity
  8
0
  6
Continuous
100
AcDbLine
 10
520.0
 20
1407.430301
 30
0.0
 11
1559.99999
 21
1407.430301
 31
0.0
  0
LINE
  5
1F2
330
A
100
AcDbEntity
  8
0
  6
DASHDOT
100
AcDbLine
 10
1574.99999
 20
880.2170980000001
 30
0.0
 11
1574.99999
 21
1443.643504
 31
0.0
  0
LINE
  5
1F3
330
A
100
AcDbEntity
  8
0
  6
DASHDOT
100
AcDbLine
 10
1566.12284
 20
911.430301
 30
0.0
 11
1583.51835
 21
911.430301
 31
0.0
  0
LINE
  5
1F4
330
A
100
AcDbEntity
  8
0
  6
DASHDOT
100
AcDbLine
 10
1410.54872
 20
922.1303009999999
 30
0.0
 11
1565.83369
 21
922.1303009999999
 31
0.0
  0
LINE
  5
1F5
330
A
100
AcDbEntity
  8
0
  6
DASHDOT
100
AcDbLine
 10
1562.84355
 20
920.5082009999999
 30
0.0
 11
1562.84355
 21
924.515951
 31
0.0
  0
LINE
  5
1F6
330
A
100
AcDbEntity
  8
0
  6
DASHDOT
100
AcDbLine
 10
1596.213193
 20
901.430301
 30
0.0
 11
483.7867969999999
 21
901.430301
 31
0.0
  0
LINE
  5
1F7
330
A
100
AcDbEntity
  8
0
  6
DASHDOT
100
AcDbLine
 10
1524.99999
 20
909.948651
 30
0.0
 11
1524.99999
 21
892.5531509999999
 31
0.0
  0
LINE
  5
1F8
330
A
100
AcDbEntity
  8
0
  6
DASHDOT
100
AcDbLine
 10
1564.99999
 20
909.948651
 30
0.0
 11
1564.99999
 21
892.5531509999999
 31
0.0
  0
LINE
  5
1F9
330
A
100
AcDbEntity
  8
0
  6
DASHDOT
100
AcDbLine
 10
1566.12284
 20
951.430301
 30
0.0
 11
1583.51835
 21
951.430301
 31
0.0
  0
LINE
  5
1FA
330
A
100
AcDbEntity
  8
0
  6
DASHDOT
100
AcDbLine
 10
1284.16629
 20
925.7303009999999
 30
0.0
 11
1439.45126
 21
925.7303009999999
 31
0.0
  0
LINE
  5
1FB
330
A
100
AcDbEntity
  8
0
  6
DASHDOT
100
AcDbLine
 10
1414.39999
 20
927.3734109999999
 30
0.0
 11
1414.39999
 21
920.5082009999999
 31
0.0
  0
LINE
  5
1FC
330
A
100
AcDbEntity
  8
0
  6
DASHDOT
100
AcDbLine
 10
1424.99999
 20
911.956091
 30
0.0
 11
1424.99999
 21
936.025341
 31
0.0
  0
LINE
  5
1FD
330
A
100
AcDbEntity
  8
0
  6
DASHDOT
100
AcDbLine
 10
1435.59999
 20
920.5082009999999
 30
0.0
 11
1435.59999
 21
927.3734109999999
 31
0.0
  0
LINE
  5
1FE
330
A
100
AcDbEntity
  8
0
  6
DASHDOT
100
AcDbLine
 10
1430.18407
 20
906.4303009999999
 30
0.0
 11
1440.07423
 21
906.4303009999999
 31
0.0
  0
LINE
  5
1FF
330
A
100
AcDbEntity
  8
0
  6
DASHDOT
100
AcDbLine
 10
1440.07423
 20
896.430301
 30
0.0
 11
1430.18407
 21
896.430301
 31
0.0
  0
LINE
  5
200
330
A
100
AcDbEntity
  8
0
  6
DASHDOT
100
AcDbLine
 10
1434.99999
 20
911.509181
 30
0.0
 11
1434.99999
 21
890.9907910000001
 31
0.0
  0
LINE
  5
201
330
A
100
AcDbEntity
  8
0
  6
DASHDOT
100
AcDbLine
 10
1410.18407
 20
906.4303009999999
 30
0.0
 11
1420.07423
 21
906.4303009999999
 31
0.0
  0
LINE
  5
202
330
A
100
AcDbEntity
  8
0
  6
DASHDOT
100
AcDbLine
 10
1414.99999
 20
890.9907910000001
 30
0.0
 11
1414.99999
 21
911.509181
 31
0.0
  0
LINE
  5
203
330
A
100
AcDbEntity
  8
0
  6
DASHDOT
100
AcDbLine
 10
1420.07423
 20
896.430301
 30
0.0
 11
1410.18407
 21
896.430301
 31
0.0
  0
LINE
  5
204
330
A
100
AcDbEntity
  8
0
  6
DASHDOT
100
AcDbLine
 10
1287.15643
 20
927.352401
 30
0.0
 11
1287.15643
 21
923.344651
 31
0.0
  0
LINE
  5
205
330
A
100
AcDbEntity
  8
0
  6
DASHDOT
100
AcDbLine
 10
1039.999996
 20
925.0169109999999
 30
0.0
 11
1039.999996
 21
886.855991
 31
0.0
  0
LINE
  5
206
330
A
100
AcDbEntity
  8
0
  6
DASHDOT
100
AcDbLine
 10
514.1663
 20
925.7303009999999
 30
0.0
 11
669.45127
 21
925.7303009999999
 31
0.0
  0
LINE
  5
207
330
A
100
AcDbEntity
  8
0
  6
DASHDOT
100
AcDbLine
 10
665.6
 20
920.5082009999999
 30
0.0
 11
665.6
 21
927.3734109999999
 31
0.0
  0
LINE
  5
208
330
A
100
AcDbEntity
  8
0
  6
DASHDOT
100
AcDbLine
 10
655.0
 20
911.956091
 30
0.0
 11
655.0
 21
936.025341
 31
0.0
  0
LINE
  5
209
330
A
100
AcDbEntity
  8
0
  6
DASHDOT
100
AcDbLine
 10
640.5487299999999
 20
922.1303009999999
 30
0.0
 11
795.833694
 21
922.1303009999999
 31
0.0
  0
LINE
  5
20A
330
A
100
AcDbEntity
  8
0
  6
DASHDOT
100
AcDbLine
 10
644.3999999999999
 20
927.3734109999999
 30
0.0
 11
644.3999999999999
 21
920.5082009999999
 31
0.0
  0
LINE
  5
20B
330
A
100
AcDbEntity
  8
0
  6
DASHDOT
100
AcDbLine
 10
645.0
 20
890.9907910000001
 30
0.0
 11
645.0
 21
911.509181
 31
0.0
  0
LINE
  5
20C
330
A
100
AcDbEntity
  8
0
  6
DASHDOT
100
AcDbLine
 10
640.18408
 20
906.4303009999999
 30
0.0
 11
650.07424
 21
906.4303009999999
 31
0.0
  0
LINE
  5
20D
330
A
100
AcDbEntity
  8
0
  6
DASHDOT
100
AcDbLine
 10
665.0
 20
911.509181
 30
0.0
 11
665.0
 21
890.9907910000001
 31
0.0
  0
LINE
  5
20E
330
A
100
AcDbEntity
  8
0
  6
DASHDOT
100
AcDbLine
 10
660.1840799999999
 20
906.4303009999999
 30
0.0
 11
670.07424
 21
906.4303009999999
 31
0.0
  0
LINE
  5
20F
330
A
100
AcDbEntity
  8
0
  6
DASHDOT
100
AcDbLine
 10
670.07424
 20
896.430301
 30
0.0
 11
660.1840799999999
 21
896.430301
 31
0.0
  0
LINE
  5
210
330
A
100
AcDbEntity
  8
0
  6
DASHDOT
100
AcDbLine
 10
650.07424
 20
896.430301
 30
0.0
 11
640.18408
 21
896.430301
 31
0.0
  0
LINE
  5
211
330
A
100
AcDbEntity
  8
0
  6
DASHDOT
100
AcDbLine
 10
555.0
 20
909.948651
 30
0.0
 11
555.0
 21
892.5531509999999
 31
0.0
  0
LINE
  5
212
330
A
100
AcDbEntity
  8
0
  6
DASHDOT
100
AcDbLine
 10
515.0
 20
892.5531509999999
 30
0.0
 11
515.0
 21
909.948651
 31
0.0
  0
LINE
  5
213
330
A
100
AcDbEntity
  8
0
  6
DASHDOT
100
AcDbLine
 10
513.87715
 20
911.430301
 30
0.0
 11
496.48165
 21
911.430301
 31
0.0
  0
LINE
  5
214
330
A
100
AcDbEntity
  8
0
  6
DASHDOT
100
AcDbLine
 10
517.1564400000001
 20
927.352401
 30
0.0
 11
517.1564400000001
 21
923.344651
 31
0.0
  0
LINE
  5
215
330
A
100
AcDbEntity
  8
0
  6
DASHDOT
100
AcDbLine
 10
496.48165
 20
951.430301
 30
0.0
 11
513.87715
 21
951.430301
 31
0.0
  0
LINE
  5
216
330
A
100
AcDbEntity
  8
0
  6
DASHDOT
100
AcDbLine
 10
505.0
 20
1443.643504
 30
0.0
 11
505.0
 21
880.2170980000001
 31
0.0
  0
LINE
  5
217
330
A
100
AcDbEntity
  8
0
  6
DASHDOT
100
AcDbLine
 10
481.41339
 20
1161.430301
 30
0.0
 11
519.5743099999999
 21
1161.430301
 31
0.0
  0
LINE
  5
218
330
A
100
AcDbEntity
  8
0
  6
DASHDOT
100
AcDbLine
 10
513.87715
 20
1372.430301
 30
0.0
 11
496.48165
 21
1372.430301
 31
0.0
  0
LINE
  5
219
330
A
100
AcDbEntity
  8
0
  6
DASHDOT
100
AcDbLine
 10
483.7867969999999
 20
1422.430301
 30
0.0
 11
1596.213193
 21
1422.430301
 31
0.0
  0
LINE
  5
21A
330
A
100
AcDbEntity
  8
0
  6
DASHDOT
100
AcDbLine
 10
513.87715
 20
1412.430301
 30
0.0
 11
496.48165
 21
1412.430301
 31
0.0
  0
LINE
  5
21B
330
A
100
AcDbEntity
  8
0
  6
DASHDOT
100
AcDbLine
 10
515.0
 20
1413.911951
 30
0.0
 11
515.0
 21
1431.307451
 31
0.0
  0
LINE
  5
21C
330
A
100
AcDbEntity
  8
0
  6
DASHDOT
100
AcDbLine
 10
669.45127
 20
1401.730301
 30
0.0
 11
514.1663
 21
1401.730301
 31
0.0
  0
LINE
  5
21D
330
A
100
AcDbEntity
  8
0
  6
DASHDOT
100
AcDbLine
 10
517.1564400000001
 20
1403.352401
 30
0.0
 11
517.1564400000001
 21
1399.344651
 31
0.0
  0
LINE
  5
21E
330
A
100
AcDbEntity
  8
0
  6
DASHDOT
100
AcDbLine
 10
555.0
 20
1413.911951
 30
0.0
 11
555.0
 21
1431.307451
 31
0.0
  0
LINE
  5
21F
330
A
100
AcDbEntity
  8
0
  6
DASHDOT
100
AcDbLine
 10
655.0
 20
1411.904511
 30
0.0
 11
655.0
 21
1387.835261
 31
0.0
  0
LINE
  5
220
330
A
100
AcDbEntity
  8
0
  6
DASHDOT
100
AcDbLine
 10
640.18408
 20
1417.430301
 30
0.0
 11
650.07424
 21
1417.430301
 31
0.0
  0
LINE
  5
221
330
A
100
AcDbEntity
  8
0
  6
DASHDOT
100
AcDbLine
 10
645.0
 20
1412.351421
 30
0.0
 11
645.0
 21
1432.869811
 31
0.0
  0
LINE
  5
222
330
A
100
AcDbEntity
  8
0
  6
DASHDOT
100
AcDbLine
 10
650.07424
 20
1427.430301
 30
0.0
 11
640.18408
 21
1427.430301
 31
0.0
  0
LINE
  5
223
330
A
100
AcDbEntity
  8
0
  6
DASHDOT
100
AcDbLine
 10
670.07424
 20
1427.430301
 30
0.0
 11
660.1840799999999
 21
1427.430301
 31
0.0
  0
LINE
  5
224
330
A
100
AcDbEntity
  8
0
  6
DASHDOT
100
AcDbLine
 10
665.0
 20
1432.869811
 30
0.0
 11
665.0
 21
1412.351421
 31
0.0
  0
LINE
  5
225
330
A
100
AcDbEntity
  8
0
  6
DASHDOT
100
AcDbLine
 10
660.1840799999999
 20
1417.430301
 30
0.0
 11
670.07424
 21
1417.430301
 31
0.0
  0
LINE
  5
226
330
A
100
AcDbEntity
  8
0
  6
DASHDOT
100
AcDbLine
 10
795.833694
 20
1398.130301
 30
0.0
 11
640.5487299999999
 21
1398.130301
 31
0.0
  0
LINE
  5
227
330
A
100
AcDbEntity
  8
0
  6
DASHDOT
100
AcDbLine
 10
644.3999999999999
 20
1403.352401
 30
0.0
 11
644.3999999999999
 21
1396.487191
 31
0.0
  0
LINE
  5
228
330
A
100
AcDbEntity
  8
0
  6
DASHDOT
100
AcDbLine
 10
665.6
 20
1396.487191
 30
0.0
 11
665.6
 21
1403.352401
 31
0.0
  0
LINE
  5
229
330
A
100
AcDbEntity
  8
0
  6
DASHDOT
100
AcDbLine
 10
792.8435519999999
 20
1396.508201
 30
0.0
 11
792.8435519999999
 21
1400.515951
 31
0.0
  0
LINE
  5
22A
330
A
100
AcDbEntity
  8
0
  6
DASHDOT
100
AcDbLine
 10
1039.999996
 20
1398.843691
 30
0.0
 11
1039.999996
 21
1437.004611
 31
0.0
  0
LINE
  5
22B
330
A
100
AcDbEntity
  8
0
  6
DASHDOT
100
AcDbLine
 10
1439.45126
 20
1401.730301
 30
0.0
 11
1284.16629
 21
1401.730301
 31
0.0
  0
LINE
  5
22C
330
A
100
AcDbEntity
  8
0
  6
DASHDOT
100
AcDbLine
 10
1287.15643
 20
1399.344651
 30
0.0
 11
1287.15643
 21
1403.352401
 31
0.0
  0
LINE
  5
22D
330
A
100
AcDbEntity
  8
0
  6
DASHDOT
100
AcDbLine
 10
1414.39999
 20
1396.487191
 30
0.0
 11
1414.39999
 21
1403.352401
 31
0.0
  0
LINE
  5
22E
330
A
100
AcDbEntity
  8
0
  6
DASHDOT
100
AcDbLine
 10
1565.83369
 20
1398.130301
 30
0.0
 11
1410.54872
 21
1398.130301
 31
0.0
  0
LINE
  5
22F
330
A
100
AcDbEntity
  8
0
  6
DASHDOT
100
AcDbLine
 10
1424.99999
 20
1411.904511
 30
0.0
 11
1424.99999
 21
1387.835261
 31
0.0
  0
LINE
  5
230
330
A
100
AcDbEntity
  8
0
  6
DASHDOT
100
AcDbLine
 10
1435.59999
 20
1403.352401
 30
0.0
 11
1435.59999
 21
1396.487191
 31
0.0
  0
LINE
  5
231
330
A
100
AcDbEntity
  8
0
  6
DASHDOT
100
AcDbLine
 10
1420.07423
 20
1417.430301
 30
0.0
 11
1410.18407
 21
1417.430301
 31
0.0
  0
LINE
  5
232
330
A
100
AcDbEntity
  8
0
  6
DASHDOT
100
AcDbLine
 10
1414.99999
 20
1412.351421
 30
0.0
 11
1414.99999
 21
1432.869811
 31
0.0
  0
LINE
  5
233
330
A
100
AcDbEntity
  8
0
  6
DASHDOT
100
AcDbLine
 10
1410.18407
 20
1427.430301
 30
0.0
 11
1420.07423
 21
1427.430301
 31
0.0
  0
LINE
  5
234
330
A
100
AcDbEntity
  8
0
  6
DASHDOT
100
AcDbLine
 10
1430.18407
 20
1427.430301
 30
0.0
 11
1440.07423
 21
1427.430301
 31
0.0
  0
LINE
  5
235
330
A
100
AcDbEntity
  8
0
  6
DASHDOT
100
AcDbLine
 10
1434.99999
 20
1432.869811
 30
0.0
 11
1434.99999
 21
1412.351421
 31
0.0
  0
LINE
  5
236
330
A
100
AcDbEntity
  8
0
  6
DASHDOT
100
AcDbLine
 10
1440.07423
 20
1417.430301
 30
0.0
 11
1430.18407
 21
1417.430301
 31
0.0
  0
LINE
  5
237
330
A
100
AcDbEntity
  8
0
  6
DASHDOT
100
AcDbLine
 10
1524.99999
 20
1431.307451
 30
0.0
 11
1524.99999
 21
1413.911951
 31
0.0
  0
LINE
  5
238
330
A
100
AcDbEntity
  8
0
  6
DASHDOT
100
AcDbLine
 10
1564.99999
 20
1431.307451
 30
0.0
 11
1564.99999
 21
1413.911951
 31
0.0
  0
LINE
  5
239
330
A
100
AcDbEntity
  8
0
  6
DASHDOT
100
AcDbLine
 10
1566.12284
 20
1412.430301
 30
0.0
 11
1583.51835
 21
1412.430301
 31
0.0
  0
LINE
  5
23A
330
A
100
AcDbEntity
  8
0
  6
DASHDOT
100
AcDbLine
 10
1562.84355
 20
1400.515951
 30
0.0
 11
1562.84355
 21
1396.508201
 31
0.0
  0
LINE
  5
23B
330
A
100
AcDbEntity
  8
0
  6
DASHDOT
100
AcDbLine
 10
1566.12284
 20
1372.430301
 30
0.0
 11
1583.51835
 21
1372.430301
 31
0.0
  0
LINE
  5
23C
330
A
100
AcDbEntity
  8
0
  6
DASHDOT
100
AcDbLine
 10
1589.5743
 20
1161.430301
 30
0.0
 11
1551.41338
 21
1161.430301
 31
0.0
  0
TEXT
  5
23D
330
A
100
AcDbEntity
  8
0
  6
Continuous
100
AcDbText
 10
843.3252650765199
 20
315.067048
 30
0.0
 40
21.0
  1
ライトシェード　Ｖバネ開閉タイプ
100
AcDbText
  0
LINE
  5
23E
330
A
100
AcDbEntity
  8
0
  6
Continuous
100
AcDbLine
 10
659.84999
 20
517.4988559999999
 30
0.0
 11
781.0935519999999
 21
587.4988639999998
 31
0.0
  0
LINE
  5
23F
330
A
100
AcDbEntity
  8
0
  6
Continuous
100
AcDbLine
 10
660.74999
 20
515.940013
 30
0.0
 11
781.9935519999999
 21
585.940018
 31
0.0
  0
LINE
  5
240
330
A
100
AcDbEntity
  8
0
  6
Continuous
100
AcDbLine
 10
784.315795
 20
585.3177749999999
 30
0.0
 11
791.715795
 21
572.5005989999999
 31
0.0
  0
LINE
  5
241
330
A
100
AcDbEntity
  8
0
  6
Continuous
100
AcDbLine
 10
785.874641
 20
586.2177749999999
 30
0.0
 11
793.274641
 21
573.400599
 31
0.0
  0
LINE
  5
242
330
A
100
AcDbEntity
  8
0
  6
Continuous
100
AcDbLine
 10
786.932933
 20
573.9847580000001
 30
0.0
 11
788.771309
 21
570.800599
 31
0.0
  0
LINE
  5
243
330
A
100
AcDbEntity
  8
0
  6
Continuous
100
AcDbLine
 10
785.374088
 20
573.0847579999999
 30
0.0
 11
786.932933
 21
573.9847580000001
 31
0.0
  0
LINE
  5
244
330
A
100
AcDbEntity
  8
0
  6
Continuous
100
AcDbLine
 10
785.374088
 20
573.0847579999999
 30
0.0
 11
787.212463
 21
569.900599
 31
0.0
  0
LINE
  5
245
330
A
100
AcDbEntity
  8
0
  6
Continuous
100
AcDbLine
 10
650.1500099999999
 20
517.4988559999999
 30
0.0
 11
528.90644
 21
587.4988639999998
 31
0.0
  0
LINE
  5
246
330
A
100
AcDbEntity
  8
0
  6
Continuous
100
AcDbLine
 10
649.2500099999999
 20
515.940013
 30
0.0
 11
528.0064399999999
 21
585.940018
 31
0.0
  0
LINE
  5
247
330
A
100
AcDbEntity
  8
0
  6
Continuous
100
AcDbLine
 10
525.6842
 20
585.3177749999999
 30
0.0
 11
518.2842
 21
572.5005989999999
 31
0.0
  0
LINE
  5
248
330
A
100
AcDbEntity
  8
0
  6
Continuous
100
AcDbLine
 10
524.12535
 20
586.2177749999999
 30
0.0
 11
516.72535
 21
573.400599
 31
0.0
  0
LINE
  5
249
330
A
100
AcDbEntity
  8
0
  6
Continuous
100
AcDbLine
 10
523.0670599999999
 20
573.9847580000001
 30
0.0
 11
521.22869
 21
570.800599
 31
0.0
  0
LINE
  5
24A
330
A
100
AcDbEntity
  8
0
  6
Continuous
100
AcDbLine
 10
524.6259099999999
 20
573.0847579999999
 30
0.0
 11
523.0670599999999
 21
573.9847580000001
 31
0.0
  0
LINE
  5
24B
330
A
100
AcDbEntity
  8
0
  6
Continuous
100
AcDbLine
 10
524.6259099999999
 20
573.0847579999999
 30
0.0
 11
522.78753
 21
569.900599
 31
0.0
  0
CIRCLE
  5
24C
330
A
100
AcDbEntity
  8
0
  6
Continuous
100
AcDbCircle
 10
655.0
 20
525.89931
 30
0.0
 40
9.699999999999999
  0
CIRCLE
  5
24D
330
A
100
AcDbEntity
  8
0
  6
Continuous
100
AcDbCircle
 10
655.0
 20
525.89931
 30
0.0
 40
11.5
  0
ARC
  5
24E
330
A
100
AcDbEntity
  8
0
  6
Continuous
100
AcDbCircle
 10
790.2435519999999
 20
571.650599
 30
0.0
 40
3.5
100
AcDbArc
 50
210.0
 51
30.0
  0
ARC
  5
24F
330
A
100
AcDbEntity
  8
0
  6
Continuous
100
AcDbCircle
 10
790.2435519999999
 20
571.650599
 30
0.0
 40
1.7
100
AcDbArc
 50
210.0
 51
30.0
  0
ARC
  5
250
330
A
100
AcDbEntity
  8
0
  6
Continuous
100
AcDbCircle
 10
782.8435519999999
 20
584.4677749999999
 30
0.0
 40
3.5
100
AcDbArc
 50
30.0
 51
120.0
  0
ARC
  5
251
330
A
100
AcDbEntity
  8
0
  6
Continuous
100
AcDbCircle
 10
782.8435519999999
 20
584.4677749999999
 30
0.0
 40
1.7
100
AcDbArc
 50
30.0
 51
120.0
  0
ARC
  5
252
330
A
100
AcDbEntity
  8
0
  6
Continuous
100
AcDbCircle
 10
519.75644
 20
571.650599
 30
0.0
 40
3.5
100
AcDbArc
 50
150.0
 51
330.0
  0
ARC
  5
253
330
A
100
AcDbEntity
  8
0
  6
Continuous
100
AcDbCircle
 10
519.75644
 20
571.650599
 30
0.0
 40
1.7
100
AcDbArc
 50
150.0
 51
330.0
  0
ARC
  5
254
330
A
100
AcDbEntity
  8
0
  6
Continuous
100
AcDbCircle
 10
527.15644
 20
584.4677749999999
 30
0.0
 40
3.5
100
AcDbArc
 50
60.0
 51
150.0
  0
ARC
  5
255
330
A
100
AcDbEntity
  8
0
  6
Continuous
100
AcDbCircle
 10
527.15644
 20
584.4677749999999
 30
0.0
 40
1.7
100
AcDbArc
 50
60.0
 51
150.0
  0
LINE
  5
256
330
A
100
AcDbEntity
  8
0
  6
Continuous
100
AcDbLine
 10
517.0
 20
514.1993099999999
 30
0.0
 11
517.0
 21
507.1993099999999
 31
0.0
  0
LINE
  5
257
330
A
100
AcDbEntity
  8
0
  6
Continuous
100
AcDbLine
 10
517.0
 20
507.1993099999999
 30
0.0
 11
520.0
 21
507.1993099999999
 31
0.0
  0
LINE
  5
258
330
A
100
AcDbEntity
  8
0
  6
Continuous
100
AcDbLine
 10
520.0
 20
507.1993099999999
 30
0.0
 11
520.0
 21
493.362261
 31
0.0
  0
LINE
  5
259
330
A
100
AcDbEntity
  8
0
  6
Continuous
100
AcDbLine
 10
518.2999999999999
 20
493.362261
 30
0.0
 11
518.2999999999999
 21
503.19931
 31
0.0
  0
LINE
  5
25A
330
A
100
AcDbEntity
  8
0
  6
Continuous
100
AcDbLine
 10
517.3
 20
504.19931
 30
0.0
 11
498.6
 21
504.19931
 31
0.0
  0
LINE
  5
25B
330
A
100
AcDbEntity
  8
0
  6
Continuous
100
AcDbLine
 10
497.5999999999999
 20
503.19931
 30
0.0
 11
497.5999999999999
 21
499.19931
 31
0.0
  0
LINE
  5
25C
330
A
100
AcDbEntity
  8
0
  6
Continuous
100
AcDbLine
 10
498.6
 20
498.1993099999999
 30
0.0
 11
506.0
 21
498.1993099999999
 31
0.0
  0
LINE
  5
25D
330
A
100
AcDbEntity
  8
0
  6
Continuous
100
AcDbLine
 10
507.0
 20
497.1993099999999
 30
0.0
 11
507.0
 21
484.499319
 31
0.0
  0
LINE
  5
25E
330
A
100
AcDbEntity
  8
0
  6
Continuous
100
AcDbLine
 10
509.0
 20
482.4993189999999
 30
0.0
 11
513.6798399999999
 21
482.4993189999999
 31
0.0
  0
LINE
  5
25F
330
A
100
AcDbEntity
  8
0
  6
Continuous
100
AcDbLine
 10
514.14214
 20
479.220129
 30
0.0
 11
492.5615999999999
 21
457.639599
 31
0.0
  0
LINE
  5
260
330
A
100
AcDbEntity
  8
0
  6
Continuous
100
AcDbLine
 10
490.01217
 20
458.890029
 30
0.0
 11
493.0
 21
482.199319
 31
0.0
  0
LINE
  5
261
330
A
100
AcDbEntity
  8
0
  6
Continuous
100
AcDbLine
 10
493.0
 20
482.199319
 30
0.0
 11
502.0
 21
482.199319
 31
0.0
  0
LINE
  5
262
330
A
100
AcDbEntity
  8
0
  6
Continuous
100
AcDbLine
 10
492.14533
 20
462.160719
 30
0.0
 11
494.38412
 21
479.6264589999999
 31
0.0
  0
LINE
  5
263
330
A
100
AcDbEntity
  8
0
  6
Continuous
100
AcDbLine
 10
495.3759999999999
 20
480.499319
 30
0.0
 11
510.60294
 21
480.499319
 31
0.0
  0
LINE
  5
264
330
A
100
AcDbEntity
  8
0
  6
Continuous
100
AcDbLine
 10
511.3100499999999
 20
478.7922089999999
 30
0.0
 11
493.84432
 21
461.326479
 31
0.0
  0
LINE
  5
265
330
A
100
AcDbEntity
  8
0
  6
Continuous
100
AcDbLine
 10
503.0
 20
495.19931
 30
0.0
 11
503.0
 21
483.199319
 31
0.0
  0
LINE
  5
266
330
A
100
AcDbEntity
  8
0
  6
Continuous
100
AcDbLine
 10
502.0
 20
496.1993099999999
 30
0.0
 11
490.0
 21
496.1993099999999
 31
0.0
  0
LINE
  5
267
330
A
100
AcDbEntity
  8
0
  6
Continuous
100
AcDbLine
 10
490.0
 20
496.1993099999999
 30
0.0
 11
490.0
 21
499.69931
 31
0.0
  0
LINE
  5
268
330
A
100
AcDbEntity
  8
0
  6
Continuous
100
AcDbLine
 10
490.0
 20
499.69931
 30
0.0
 11
491.5
 21
499.69931
 31
0.0
  0
LINE
  5
269
330
A
100
AcDbEntity
  8
0
  6
Continuous
100
AcDbLine
 10
491.5
 20
497.6993099999999
 30
0.0
 11
495.6
 21
497.6993099999999
 31
0.0
  0
LINE
  5
26A
330
A
100
AcDbEntity
  8
0
  6
Continuous
100
AcDbLine
 10
495.6
 20
497.6993099999999
 30
0.0
 11
495.6
 21
505.6993099999999
 31
0.0
  0
LINE
  5
26B
330
A
100
AcDbEntity
  8
0
  6
Continuous
100
AcDbLine
 10
495.6
 20
505.6993099999999
 30
0.0
 11
491.5
 21
505.6993099999999
 31
0.0
  0
LINE
  5
26C
330
A
100
AcDbEntity
  8
0
  6
Continuous
100
AcDbLine
 10
491.5
 20
503.69931
 30
0.0
 11
490.0
 21
503.69931
 31
0.0
  0
LINE
  5
26D
330
A
100
AcDbEntity
  8
0
  6
Continuous
100
AcDbLine
 10
490.0
 20
503.69931
 30
0.0
 11
490.0
 21
507.1993099999999
 31
0.0
  0
LINE
  5
26E
330
A
100
AcDbEntity
  8
0
  6
Continuous
100
AcDbLine
 10
490.0
 20
507.1993099999999
 30
0.0
 11
493.0
 21
507.1993099999999
 31
0.0
  0
LINE
  5
26F
330
A
100
AcDbEntity
  8
0
  6
Continuous
100
AcDbLine
 10
493.0
 20
507.1993099999999
 30
0.0
 11
493.0
 21
514.1993099999999
 31
0.0
  0
LINE
  5
270
330
A
100
AcDbEntity
  8
0
  6
Continuous
100
AcDbLine
 10
493.0
 20
514.1993099999999
 30
0.0
 11
501.4999999999999
 21
514.1993099999999
 31
0.0
  0
LINE
  5
271
330
A
100
AcDbEntity
  8
0
  6
Continuous
100
AcDbLine
 10
501.4999999999999
 20
514.1993099999999
 30
0.0
 11
501.4999999999999
 21
512.19931
 31
0.0
  0
LINE
  5
272
330
A
100
AcDbEntity
  8
0
  6
Continuous
100
AcDbLine
 10
501.4999999999999
 20
512.19931
 30
0.0
 11
494.5
 21
512.19931
 31
0.0
  0
LINE
  5
273
330
A
100
AcDbEntity
  8
0
  6
Continuous
100
AcDbLine
 10
494.5
 20
512.19931
 30
0.0
 11
494.5
 21
507.1993099999999
 31
0.0
  0
LINE
  5
274
330
A
100
AcDbEntity
  8
0
  6
Continuous
100
AcDbLine
 10
494.5
 20
507.1993099999999
 30
0.0
 11
515.5
 21
507.1993099999999
 31
0.0
  0
LINE
  5
275
330
A
100
AcDbEntity
  8
0
  6
Continuous
100
AcDbLine
 10
515.5
 20
507.1993099999999
 30
0.0
 11
515.5
 21
512.19931
 31
0.0
  0
LINE
  5
276
330
A
100
AcDbEntity
  8
0
  6
Continuous
100
AcDbLine
 10
515.5
 20
512.19931
 30
0.0
 11
508.4999999999999
 21
512.19931
 31
0.0
  0
LINE
  5
277
330
A
100
AcDbEntity
  8
0
  6
Continuous
100
AcDbLine
 10
508.4999999999999
 20
512.19931
 30
0.0
 11
508.4999999999999
 21
514.1993099999999
 31
0.0
  0
LINE
  5
278
330
A
100
AcDbEntity
  8
0
  6
Continuous
100
AcDbLine
 10
508.4999999999999
 20
514.1993099999999
 30
0.0
 11
517.0
 21
514.1993099999999
 31
0.0
  0
ARC
  5
279
330
A
100
AcDbEntity
  8
0
  6
Continuous
100
AcDbCircle
 10
491.5
 20
458.699319
 30
0.0
 40
1.5
100
AcDbArc
 50
172.69555
 51
315.05085
  0
ARC
  5
27A
330
A
100
AcDbEntity
  8
0
  6
Continuous
100
AcDbCircle
 10
493.1372099999999
 20
462.033579
 30
0.0
 40
1.0
100
AcDbArc
 50
172.69555
 51
315.0
  0
ARC
  5
27B
330
A
100
AcDbEntity
  8
0
  6
Continuous
100
AcDbCircle
 10
495.3759999999999
 20
479.499319
 30
0.0
 40
1.0
100
AcDbArc
 50
90.0
 51
172.69555
  0
ARC
  5
27C
330
A
100
AcDbEntity
  8
0
  6
Continuous
100
AcDbCircle
 10
510.60294
 20
479.499319
 30
0.0
 40
1.0
100
AcDbArc
 50
315.0
 51
90.0
  0
ARC
  5
27D
330
A
100
AcDbEntity
  8
0
  6
Continuous
100
AcDbCircle
 10
500.0
 20
493.362261
 30
0.0
 40
20.0
100
AcDbArc
 50
315.0
 51
0.0
  0
ARC
  5
27E
330
A
100
AcDbEntity
  8
0
  6
Continuous
100
AcDbCircle
 10
509.0
 20
484.499319
 30
0.0
 40
2.0
100
AcDbArc
 50
180.0
 51
270.0
  0
ARC
  5
27F
330
A
100
AcDbEntity
  8
0
  6
Continuous
100
AcDbCircle
 10
500.0
 20
493.362261
 30
0.0
 40
18.3
100
AcDbArc
 50
327.06144
 51
0.0
  0
ARC
  5
280
330
A
100
AcDbEntity
  8
0
  6
Continuous
100
AcDbCircle
 10
513.6798399999999
 20
484.499319
 30
0.0
 40
2.0
100
AcDbArc
 50
270.0
 51
327.06144
  0
ARC
  5
281
330
A
100
AcDbEntity
  8
0
  6
Continuous
100
AcDbCircle
 10
502.0
 20
495.19931
 30
0.0
 40
1.0
100
AcDbArc
 50
0.0
 51
90.0
  0
ARC
  5
282
330
A
100
AcDbEntity
  8
0
  6
Continuous
100
AcDbCircle
 10
502.0
 20
483.199319
 30
0.0
 40
1.0
100
AcDbArc
 50
270.0
 51
0.0
  0
ARC
  5
283
330
A
100
AcDbEntity
  8
0
  6
Continuous
100
AcDbCircle
 10
517.3
 20
503.19931
 30
0.0
 40
1.0
100
AcDbArc
 50
0.0
 51
90.0
  0
ARC
  5
284
330
A
100
AcDbEntity
  8
0
  6
Continuous
100
AcDbCircle
 10
498.6
 20
503.19931
 30
0.0
 40
1.0
100
AcDbArc
 50
90.0
 51
180.0
  0
ARC
  5
285
330
A
100
AcDbEntity
  8
0
  6
Continuous
100
AcDbCircle
 10
498.6
 20
499.19931
 30
0.0
 40
1.0
100
AcDbArc
 50
180.0
 51
270.0
  0
ARC
  5
286
330
A
100
AcDbEntity
  8
0
  6
Continuous
100
AcDbCircle
 10
506.0
 20
497.1993099999999
 30
0.0
 40
1.0
100
AcDbArc
 50
0.0
 51
90.0
  0
LINE
  5
287
330
A
100
AcDbEntity
  8
0
  6
Continuous
100
AcDbLine
 10
730.2
 20
592.89931
 30
0.0
 11
730.2
 21
595.19931
 31
0.0
  0
LINE
  5
288
330
A
100
AcDbEntity
  8
0
  6
Continuous
100
AcDbLine
 10
730.2
 20
595.19931
 30
0.0
 11
685.2
 21
595.19931
 31
0.0
  0
LINE
  5
289
330
A
100
AcDbEntity
  8
0
  6
Continuous
100
AcDbLine
 10
685.2
 20
595.19931
 30
0.0
 11
685.2
 21
572.4993099999998
 31
0.0
  0
LINE
  5
28A
330
A
100
AcDbEntity
  8
0
  6
Continuous
100
AcDbLine
 10
685.2
 20
572.4993099999998
 30
0.0
 11
652.5
 21
572.4993099999998
 31
0.0
  0
LINE
  5
28B
330
A
100
AcDbEntity
  8
0
  6
Continuous
100
AcDbLine
 10
652.5
 20
572.4993099999998
 30
0.0
 11
652.5
 21
570.19931
 31
0.0
  0
LINE
  5
28C
330
A
100
AcDbEntity
  8
0
  6
Continuous
100
AcDbLine
 10
730.2
 20
592.89931
 30
0.0
 11
687.5
 21
592.89931
 31
0.0
  0
LINE
  5
28D
330
A
100
AcDbEntity
  8
0
  6
Continuous
100
AcDbLine
 10
687.5
 20
592.89931
 30
0.0
 11
687.5
 21
570.19931
 31
0.0
  0
LINE
  5
28E
330
A
100
AcDbEntity
  8
0
  6
Continuous
100
AcDbLine
 10
670.0
 20
524.19931
 30
0.0
 11
670.0
 21
525.39931
 31
0.0
  0
LINE
  5
28F
330
A
100
AcDbEntity
  8
0
  6
Continuous
100
AcDbLine
 10
676.2
 20
524.19931
 30
0.0
 11
676.2
 21
522.1993099999999
 31
0.0
  0
LINE
  5
290
330
A
100
AcDbEntity
  8
0
  6
Continuous
100
AcDbLine
 10
640.0
 20
525.39931
 30
0.0
 11
640.0
 21
524.19931
 31
0.0
  0
LINE
  5
291
330
A
100
AcDbEntity
  8
0
  6
Continuous
100
AcDbLine
 10
633.8
 20
522.1993099999999
 30
0.0
 11
633.8
 21
524.19931
 31
0.0
  0
LINE
  5
292
330
A
100
AcDbEntity
  8
0
  6
Continuous
100
AcDbLine
 10
515.0
 20
552.6993099999999
 30
0.0
 11
495.0
 21
552.6993099999999
 31
0.0
  0
LINE
  5
293
330
A
100
AcDbEntity
  8
0
  6
Continuous
100
AcDbLine
 10
495.0
 20
552.6993099999999
 30
0.0
 11
495.0
 21
549.4993099999999
 31
0.0
  0
LINE
  5
294
330
A
100
AcDbEntity
  8
0
  6
Continuous
100
AcDbLine
 10
495.0
 20
549.4993099999999
 30
0.0
 11
515.0
 21
549.4993099999999
 31
0.0
  0
LINE
  5
295
330
A
100
AcDbEntity
  8
0
  6
Continuous
100
AcDbLine
 10
515.0
 20
557.39931
 30
0.0
 11
495.0
 21
557.39931
 31
0.0
  0
LINE
  5
296
330
A
100
AcDbEntity
  8
0
  6
Continuous
100
AcDbLine
 10
495.0
 20
557.39931
 30
0.0
 11
495.0
 21
554.19931
 31
0.0
  0
LINE
  5
297
330
A
100
AcDbEntity
  8
0
  6
Continuous
100
AcDbLine
 10
495.0
 20
554.19931
 30
0.0
 11
515.0
 21
554.19931
 31
0.0
  0
LINE
  5
298
330
A
100
AcDbEntity
  8
0
  6
Continuous
100
AcDbLine
 10
494.0
 20
483.199319
 30
0.0
 11
494.0
 21
485.199319
 31
0.0
  0
LINE
  5
299
330
A
100
AcDbEntity
  8
0
  6
Continuous
100
AcDbLine
 10
494.0
 20
485.199319
 30
0.0
 11
500.0
 21
485.199319
 31
0.0
  0
LINE
  5
29A
330
A
100
AcDbEntity
  8
0
  6
Continuous
100
AcDbLine
 10
500.0
 20
485.199319
 30
0.0
 11
500.0
 21
493.1993099999999
 31
0.0
  0
LINE
  5
29B
330
A
100
AcDbEntity
  8
0
  6
Continuous
100
AcDbLine
 10
500.0
 20
493.1993099999999
 30
0.0
 11
494.0
 21
493.1993099999999
 31
0.0
  0
LINE
  5
29C
330
A
100
AcDbEntity
  8
0
  6
Continuous
100
AcDbLine
 10
494.0
 20
493.1993099999999
 30
0.0
 11
494.0
 21
495.19931
 31
0.0
  0
LINE
  5
29D
330
A
100
AcDbEntity
  8
0
  6
Continuous
100
AcDbLine
 10
494.0
 20
495.19931
 30
0.0
 11
502.0
 21
495.19931
 31
0.0
  0
LINE
  5
29E
330
A
100
AcDbEntity
  8
0
  6
Continuous
100
AcDbLine
 10
502.0
 20
495.19931
 30
0.0
 11
502.0
 21
483.199319
 31
0.0
  0
LINE
  5
29F
330
A
100
AcDbEntity
  8
0
  6
Continuous
100
AcDbLine
 10
502.0
 20
483.199319
 30
0.0
 11
494.0
 21
483.199319
 31
0.0
  0
LINE
  5
2A0
330
A
100
AcDbEntity
  8
0
  6
Continuous
100
AcDbLine
 10
509.0
 20
491.19931
 30
0.0
 11
509.0
 21
487.199319
 31
0.0
  0
LINE
  5
2A1
330
A
100
AcDbEntity
  8
0
  6
Continuous
100
AcDbLine
 10
509.0
 20
487.199319
 30
0.0
 11
500.0
 21
487.199319
 31
0.0
  0
LINE
  5
2A2
330
A
100
AcDbEntity
  8
0
  6
Continuous
100
AcDbLine
 10
500.0
 20
485.599319
 30
0.0
 11
499.1523099999999
 21
485.599319
 31
0.0
  0
LINE
  5
2A3
330
A
100
AcDbEntity
  8
0
  6
Continuous
100
AcDbLine
 10
500.0
 20
491.19931
 30
0.0
 11
509.0
 21
491.19931
 31
0.0
  0
LINE
  5
2A4
330
A
100
AcDbEntity
  8
0
  6
Continuous
100
AcDbLine
 10
500.0
 20
492.7993099999999
 30
0.0
 11
499.1523099999999
 21
492.7993099999999
 31
0.0
  0
LINE
  5
2A5
330
A
100
AcDbEntity
  8
0
  6
Continuous
100
AcDbLine
 10
515.0
 20
517.39931
 30
0.0
 11
495.0
 21
517.39931
 31
0.0
  0
LINE
  5
2A6
330
A
100
AcDbEntity
  8
0
  6
Continuous
100
AcDbLine
 10
495.0
 20
517.39931
 30
0.0
 11
495.0
 21
514.1993099999999
 31
0.0
  0
LINE
  5
2A7
330
A
100
AcDbEntity
  8
0
  6
Continuous
100
AcDbLine
 10
495.0
 20
514.1993099999999
 30
0.0
 11
515.0
 21
514.1993099999999
 31
0.0
  0
LINE
  5
2A8
330
A
100
AcDbEntity
  8
0
  6
Continuous
100
AcDbLine
 10
515.0
 20
508.99931
 30
0.0
 11
495.0
 21
508.99931
 31
0.0
  0
LINE
  5
2A9
330
A
100
AcDbEntity
  8
0
  6
Continuous
100
AcDbLine
 10
495.0
 20
508.99931
 30
0.0
 11
495.0
 21
512.19931
 31
0.0
  0
LINE
  5
2AA
330
A
100
AcDbEntity
  8
0
  6
Continuous
100
AcDbLine
 10
495.0
 20
512.19931
 30
0.0
 11
515.0
 21
512.19931
 31
0.0
  0
LINE
  5
2AB
330
A
100
AcDbEntity
  8
0
  6
Continuous
100
AcDbLine
 10
515.0
 20
517.39931
 30
0.0
 11
565.0
 21
517.39931
 31
0.0
  0
LINE
  5
2AC
330
A
100
AcDbEntity
  8
0
  6
Continuous
100
AcDbLine
 10
565.0
 20
517.39931
 30
0.0
 11
565.0
 21
514.1993099999999
 31
0.0
  0
LINE
  5
2AD
330
A
100
AcDbEntity
  8
0
  6
Continuous
100
AcDbLine
 10
515.0
 20
557.39931
 30
0.0
 11
565.0
 21
557.39931
 31
0.0
  0
LINE
  5
2AE
330
A
100
AcDbEntity
  8
0
  6
Continuous
100
AcDbLine
 10
565.0
 20
557.39931
 30
0.0
 11
565.0
 21
554.19931
 31
0.0
  0
LINE
  5
2AF
330
A
100
AcDbEntity
  8
0
  6
Continuous
100
AcDbLine
 10
625.0
 20
549.19931
 30
0.0
 11
685.0
 21
549.19931
 31
0.0
  0
LINE
  5
2B0
330
A
100
AcDbEntity
  8
0
  6
Continuous
100
AcDbLine
 10
703.2
 20
592.89931
 30
0.0
 11
703.2
 21
595.19931
 31
0.0
  0
ARC
  5
2B1
330
A
100
AcDbEntity
  8
0
  6
Continuous
100
AcDbCircle
 10
499.1523099999999
 20
491.27931
 30
0.0
 40
1.52
100
AcDbArc
 50
90.0
 51
165.08263
  0
ARC
  5
2B2
330
A
100
AcDbEntity
  8
0
  6
Continuous
100
AcDbCircle
 10
499.1523099999999
 20
487.119319
 30
0.0
 40
1.52
100
AcDbArc
 50
194.91736
 51
270.0
  0
ARC
  5
2B3
330
A
100
AcDbEntity
  8
0
  6
Continuous
100
AcDbCircle
 10
506.96
 20
489.199319
 30
0.0
 40
9.599999999999999
100
AcDbArc
 50
165.08263
 51
194.91736
  0
ARC
  5
2B4
330
A
100
AcDbEntity
  8
0
  6
Continuous
100
AcDbCircle
 10
655.0
 20
497.6940469999999
 30
0.0
 40
31.505263
100
AcDbArc
 50
61.568293
 51
118.4317
  0
CIRCLE
  5
2B5
330
A
100
AcDbEntity
  8
0
  6
Continuous
100
AcDbCircle
 10
642.4999999999999
 20
539.1993099999999
 30
0.0
 40
2.75
  0
CIRCLE
  5
2B6
330
A
100
AcDbEntity
  8
0
  6
Continuous
100
AcDbCircle
 10
667.4999999999999
 20
539.1993099999999
 30
0.0
 40
2.75
  0
LINE
  5
2B7
330
A
100
AcDbEntity
  8
0
  6
Continuous
100
AcDbLine
 10
710.8759499999999
 20
602.3044119999999
 30
0.0
 11
710.8759499999999
 21
595.19931
 31
0.0
  0
LINE
  5
2B8
330
A
100
AcDbEntity
  8
0
  6
Continuous
100
AcDbLine
 10
710.8759499999999
 20
592.89931
 30
0.0
 11
710.8759499999999
 21
585.794207
 31
0.0
  0
LINE
  5
2B9
330
A
100
AcDbEntity
  8
0
  6
Continuous
100
AcDbLine
 10
710.78342
 20
584.89931
 30
0.0
 11
710.78342
 21
573.9374609999999
 31
0.0
  0
LINE
  5
2BA
330
A
100
AcDbEntity
  8
0
  6
Continuous
100
AcDbLine
 10
710.78342
 20
573.9374609999999
 30
0.0
 11
711.7834199999999
 21
572.9374609999999
 31
0.0
  0
LINE
  5
2BB
330
A
100
AcDbEntity
  8
0
  6
Continuous
100
AcDbLine
 10
715.7834199999999
 20
584.89931
 30
0.0
 11
707.53342
 21
584.89931
 31
0.0
  0
LINE
  5
2BC
330
A
100
AcDbEntity
  8
0
  6
Continuous
100
AcDbLine
 10
707.53342
 20
584.89931
 30
0.0
 11
705.98343
 21
585.794207
 31
0.0
  0
LINE
  5
2BD
330
A
100
AcDbEntity
  8
0
  6
Continuous
100
AcDbLine
 10
705.98343
 20
585.794207
 30
0.0
 11
705.98343
 21
592.89931
 31
0.0
  0
LINE
  5
2BE
330
A
100
AcDbEntity
  8
0
  6
Continuous
100
AcDbLine
 10
705.98343
 20
595.19931
 30
0.0
 11
705.98343
 21
602.3044119999999
 31
0.0
  0
LINE
  5
2BF
330
A
100
AcDbEntity
  8
0
  6
Continuous
100
AcDbLine
 10
705.98343
 20
602.3044119999999
 30
0.0
 11
707.53342
 21
603.199309
 31
0.0
  0
LINE
  5
2C0
330
A
100
AcDbEntity
  8
0
  6
Continuous
100
AcDbLine
 10
707.53342
 20
603.199309
 30
0.0
 11
715.7834199999999
 21
603.199309
 31
0.0
  0
LINE
  5
2C1
330
A
100
AcDbEntity
  8
0
  6
Continuous
100
AcDbLine
 10
715.7834199999999
 20
603.199309
 30
0.0
 11
724.0334199999999
 21
603.199309
 31
0.0
  0
LINE
  5
2C2
330
A
100
AcDbEntity
  8
0
  6
Continuous
100
AcDbLine
 10
724.0334199999999
 20
603.199309
 30
0.0
 11
725.5834099999999
 21
602.3044119999999
 31
0.0
  0
LINE
  5
2C3
330
A
100
AcDbEntity
  8
0
  6
Continuous
100
AcDbLine
 10
725.5834099999999
 20
602.3044119999999
 30
0.0
 11
725.5834099999999
 21
595.19931
 31
0.0
  0
LINE
  5
2C4
330
A
100
AcDbEntity
  8
0
  6
Continuous
100
AcDbLine
 10
725.5834099999999
 20
592.89931
 30
0.0
 11
725.5834099999999
 21
585.794207
 31
0.0
  0
LINE
  5
2C5
330
A
100
AcDbEntity
  8
0
  6
Continuous
100
AcDbLine
 10
725.5834099999999
 20
585.794207
 30
0.0
 11
724.0334199999999
 21
584.89931
 31
0.0
  0
LINE
  5
2C6
330
A
100
AcDbEntity
  8
0
  6
Continuous
100
AcDbLine
 10
724.0334199999999
 20
584.89931
 30
0.0
 11
715.7834199999999
 21
584.89931
 31
0.0
  0
LINE
  5
2C7
330
A
100
AcDbEntity
  8
0
  6
Continuous
100
AcDbLine
 10
719.7834199999999
 20
572.9374609999999
 30
0.0
 11
711.7834199999999
 21
572.9374609999999
 31
0.0
  0
LINE
  5
2C8
330
A
100
AcDbEntity
  8
0
  6
Continuous
100
AcDbLine
 10
720.7834199999999
 20
573.9374609999999
 30
0.0
 11
720.7834199999999
 21
584.89931
 31
0.0
  0
LINE
  5
2C9
330
A
100
AcDbEntity
  8
0
  6
Continuous
100
AcDbLine
 10
720.6908900000001
 20
585.794207
 30
0.0
 11
720.6908900000001
 21
592.89931
 31
0.0
  0
LINE
  5
2CA
330
A
100
AcDbEntity
  8
0
  6
Continuous
100
AcDbLine
 10
720.6908900000001
 20
595.19931
 30
0.0
 11
720.6908900000001
 21
602.3044119999999
 31
0.0
  0
LINE
  5
2CB
330
A
100
AcDbEntity
  8
0
  6
Continuous
100
AcDbLine
 10
719.7834199999999
 20
572.9374609999999
 30
0.0
 11
720.7834199999999
 21
573.9374609999999
 31
0.0
  0
LINE
  5
2CC
330
A
100
AcDbEntity
  8
0
  6
Continuous
100
AcDbLine
 10
652.5
 20
570.19931
 30
0.0
 11
652.5
 21
556.4993099999999
 31
0.0
  0
LINE
  5
2CD
330
A
100
AcDbEntity
  8
0
  6
Continuous
100
AcDbLine
 10
652.5
 20
556.4993099999999
 30
0.0
 11
630.0
 21
556.4993099999999
 31
0.0
  0
LINE
  5
2CE
330
A
100
AcDbEntity
  8
0
  6
Continuous
100
AcDbLine
 10
630.0
 20
556.4993099999999
 30
0.0
 11
630.0
 21
554.19931
 31
0.0
  0
LINE
  5
2CF
330
A
100
AcDbEntity
  8
0
  6
Continuous
100
AcDbLine
 10
687.5
 20
570.19931
 30
0.0
 11
652.5
 21
570.19931
 31
0.0
  0
LINE
  5
2D0
330
A
100
AcDbEntity
  8
0
  6
Continuous
100
AcDbLine
 10
654.8
 20
567.89931
 30
0.0
 11
675.2
 21
567.89931
 31
0.0
  0
LINE
  5
2D1
330
A
100
AcDbEntity
  8
0
  6
Continuous
100
AcDbLine
 10
675.2
 20
567.89931
 30
0.0
 11
675.2
 21
554.19931
 31
0.0
  0
LINE
  5
2D2
330
A
100
AcDbEntity
  8
0
  6
Continuous
100
AcDbLine
 10
677.5
 20
556.4993099999999
 30
0.0
 11
700.0
 21
556.4993099999999
 31
0.0
  0
LINE
  5
2D3
330
A
100
AcDbEntity
  8
0
  6
Continuous
100
AcDbLine
 10
700.0
 20
556.4993099999999
 30
0.0
 11
700.0
 21
554.19931
 31
0.0
  0
LINE
  5
2D4
330
A
100
AcDbEntity
  8
0
  6
Continuous
100
AcDbLine
 10
515.5
 20
547.6993099999999
 30
0.0
 11
494.5
 21
547.6993099999999
 31
0.0
  0
LINE
  5
2D5
330
A
100
AcDbEntity
  8
0
  6
Continuous
100
AcDbLine
 10
494.5
 20
547.6993099999999
 30
0.0
 11
494.5
 21
552.6993099999999
 31
0.0
  0
LINE
  5
2D6
330
A
100
AcDbEntity
  8
0
  6
Continuous
100
AcDbLine
 10
494.5
 20
552.6993099999999
 30
0.0
 11
501.4999999999999
 21
552.6993099999999
 31
0.0
  0
LINE
  5
2D7
330
A
100
AcDbEntity
  8
0
  6
Continuous
100
AcDbLine
 10
501.4999999999999
 20
552.6993099999999
 30
0.0
 11
501.4999999999999
 21
554.19931
 31
0.0
  0
LINE
  5
2D8
330
A
100
AcDbEntity
  8
0
  6
Continuous
100
AcDbLine
 10
501.4999999999999
 20
554.19931
 30
0.0
 11
493.0
 21
554.19931
 31
0.0
  0
LINE
  5
2D9
330
A
100
AcDbEntity
  8
0
  6
Continuous
100
AcDbLine
 10
493.0
 20
554.19931
 30
0.0
 11
493.0
 21
547.6993099999999
 31
0.0
  0
LINE
  5
2DA
330
A
100
AcDbEntity
  8
0
  6
Continuous
100
AcDbLine
 10
493.0
 20
547.6993099999999
 30
0.0
 11
490.0
 21
547.6993099999999
 31
0.0
  0
LINE
  5
2DB
330
A
100
AcDbEntity
  8
0
  6
Continuous
100
AcDbLine
 10
490.0
 20
547.6993099999999
 30
0.0
 11
490.0
 21
543.6993099999999
 31
0.0
  0
LINE
  5
2DC
330
A
100
AcDbEntity
  8
0
  6
Continuous
100
AcDbLine
 10
490.0
 20
543.6993099999999
 30
0.0
 11
491.5
 21
543.6993099999999
 31
0.0
  0
LINE
  5
2DD
330
A
100
AcDbEntity
  8
0
  6
Continuous
100
AcDbLine
 10
491.5
 20
543.6993099999999
 30
0.0
 11
491.5
 21
546.1993099999999
 31
0.0
  0
LINE
  5
2DE
330
A
100
AcDbEntity
  8
0
  6
Continuous
100
AcDbLine
 10
491.5
 20
546.1993099999999
 30
0.0
 11
498.5
 21
546.1993099999999
 31
0.0
  0
LINE
  5
2DF
330
A
100
AcDbEntity
  8
0
  6
Continuous
100
AcDbLine
 10
498.5
 20
546.1993099999999
 30
0.0
 11
498.5
 21
532.1993099999999
 31
0.0
  0
LINE
  5
2E0
330
A
100
AcDbEntity
  8
0
  6
Continuous
100
AcDbLine
 10
498.5
 20
532.1993099999999
 30
0.0
 11
491.5
 21
532.1993099999999
 31
0.0
  0
LINE
  5
2E1
330
A
100
AcDbEntity
  8
0
  6
Continuous
100
AcDbLine
 10
491.5
 20
532.1993099999999
 30
0.0
 11
491.5
 21
534.6993099999999
 31
0.0
  0
LINE
  5
2E2
330
A
100
AcDbEntity
  8
0
  6
Continuous
100
AcDbLine
 10
491.5
 20
534.6993099999999
 30
0.0
 11
490.0
 21
534.6993099999999
 31
0.0
  0
LINE
  5
2E3
330
A
100
AcDbEntity
  8
0
  6
Continuous
100
AcDbLine
 10
490.0
 20
534.6993099999999
 30
0.0
 11
490.0
 21
530.6993099999999
 31
0.0
  0
LINE
  5
2E4
330
A
100
AcDbEntity
  8
0
  6
Continuous
100
AcDbLine
 10
490.0
 20
530.6993099999999
 30
0.0
 11
493.0
 21
530.6993099999999
 31
0.0
  0
LINE
  5
2E5
330
A
100
AcDbEntity
  8
0
  6
Continuous
100
AcDbLine
 10
493.0
 20
530.6993099999999
 30
0.0
 11
493.0
 21
524.19931
 31
0.0
  0
LINE
  5
2E6
330
A
100
AcDbEntity
  8
0
  6
Continuous
100
AcDbLine
 10
493.0
 20
524.19931
 30
0.0
 11
501.4999999999999
 21
524.19931
 31
0.0
  0
LINE
  5
2E7
330
A
100
AcDbEntity
  8
0
  6
Continuous
100
AcDbLine
 10
501.4999999999999
 20
524.19931
 30
0.0
 11
501.4999999999999
 21
525.6993099999999
 31
0.0
  0
LINE
  5
2E8
330
A
100
AcDbEntity
  8
0
  6
Continuous
100
AcDbLine
 10
501.4999999999999
 20
525.6993099999999
 30
0.0
 11
494.5
 21
525.6993099999999
 31
0.0
  0
LINE
  5
2E9
330
A
100
AcDbEntity
  8
0
  6
Continuous
100
AcDbLine
 10
494.5
 20
525.6993099999999
 30
0.0
 11
494.5
 21
530.6993099999999
 31
0.0
  0
LINE
  5
2EA
330
A
100
AcDbEntity
  8
0
  6
Continuous
100
AcDbLine
 10
494.5
 20
530.6993099999999
 30
0.0
 11
515.5
 21
530.6993099999999
 31
0.0
  0
LINE
  5
2EB
330
A
100
AcDbEntity
  8
0
  6
Continuous
100
AcDbLine
 10
515.5
 20
530.6993099999999
 30
0.0
 11
515.5
 21
525.6993099999999
 31
0.0
  0
LINE
  5
2EC
330
A
100
AcDbEntity
  8
0
  6
Continuous
100
AcDbLine
 10
515.5
 20
525.6993099999999
 30
0.0
 11
508.4999999999999
 21
525.6993099999999
 31
0.0
  0
LINE
  5
2ED
330
A
100
AcDbEntity
  8
0
  6
Continuous
100
AcDbLine
 10
508.4999999999999
 20
525.6993099999999
 30
0.0
 11
508.4999999999999
 21
524.19931
 31
0.0
  0
LINE
  5
2EE
330
A
100
AcDbEntity
  8
0
  6
Continuous
100
AcDbLine
 10
508.4999999999999
 20
524.19931
 30
0.0
 11
517.0
 21
524.19931
 31
0.0
  0
LINE
  5
2EF
330
A
100
AcDbEntity
  8
0
  6
Continuous
100
AcDbLine
 10
517.0
 20
524.19931
 30
0.0
 11
517.0
 21
530.6993099999999
 31
0.0
  0
LINE
  5
2F0
330
A
100
AcDbEntity
  8
0
  6
Continuous
100
AcDbLine
 10
517.0
 20
530.6993099999999
 30
0.0
 11
520.0
 21
530.6993099999999
 31
0.0
  0
LINE
  5
2F1
330
A
100
AcDbEntity
  8
0
  6
Continuous
100
AcDbLine
 10
520.0
 20
530.6993099999999
 30
0.0
 11
520.0
 21
534.6993099999999
 31
0.0
  0
LINE
  5
2F2
330
A
100
AcDbEntity
  8
0
  6
Continuous
100
AcDbLine
 10
520.0
 20
534.6993099999999
 30
0.0
 11
518.5
 21
534.6993099999999
 31
0.0
  0
LINE
  5
2F3
330
A
100
AcDbEntity
  8
0
  6
Continuous
100
AcDbLine
 10
518.5
 20
534.6993099999999
 30
0.0
 11
518.5
 21
532.1993099999999
 31
0.0
  0
LINE
  5
2F4
330
A
100
AcDbEntity
  8
0
  6
Continuous
100
AcDbLine
 10
518.5
 20
532.1993099999999
 30
0.0
 11
511.5
 21
532.1993099999999
 31
0.0
  0
LINE
  5
2F5
330
A
100
AcDbEntity
  8
0
  6
Continuous
100
AcDbLine
 10
511.5
 20
532.1993099999999
 30
0.0
 11
511.5
 21
546.1993099999999
 31
0.0
  0
LINE
  5
2F6
330
A
100
AcDbEntity
  8
0
  6
Continuous
100
AcDbLine
 10
511.5
 20
546.1993099999999
 30
0.0
 11
518.5
 21
546.1993099999999
 31
0.0
  0
LINE
  5
2F7
330
A
100
AcDbEntity
  8
0
  6
Continuous
100
AcDbLine
 10
518.5
 20
546.1993099999999
 30
0.0
 11
518.5
 21
543.6993099999999
 31
0.0
  0
LINE
  5
2F8
330
A
100
AcDbEntity
  8
0
  6
Continuous
100
AcDbLine
 10
518.5
 20
543.6993099999999
 30
0.0
 11
520.0
 21
543.6993099999999
 31
0.0
  0
LINE
  5
2F9
330
A
100
AcDbEntity
  8
0
  6
Continuous
100
AcDbLine
 10
520.0
 20
543.6993099999999
 30
0.0
 11
520.0
 21
547.6993099999999
 31
0.0
  0
LINE
  5
2FA
330
A
100
AcDbEntity
  8
0
  6
Continuous
100
AcDbLine
 10
520.0
 20
547.6993099999999
 30
0.0
 11
517.0
 21
547.6993099999999
 31
0.0
  0
LINE
  5
2FB
330
A
100
AcDbEntity
  8
0
  6
Continuous
100
AcDbLine
 10
517.0
 20
547.6993099999999
 30
0.0
 11
517.0
 21
554.19931
 31
0.0
  0
LINE
  5
2FC
330
A
100
AcDbEntity
  8
0
  6
Continuous
100
AcDbLine
 10
517.0
 20
554.19931
 30
0.0
 11
508.4999999999999
 21
554.19931
 31
0.0
  0
LINE
  5
2FD
330
A
100
AcDbEntity
  8
0
  6
Continuous
100
AcDbLine
 10
508.4999999999999
 20
554.19931
 30
0.0
 11
508.4999999999999
 21
552.6993099999999
 31
0.0
  0
LINE
  5
2FE
330
A
100
AcDbEntity
  8
0
  6
Continuous
100
AcDbLine
 10
508.4999999999999
 20
552.6993099999999
 30
0.0
 11
515.5
 21
552.6993099999999
 31
0.0
  0
LINE
  5
2FF
330
A
100
AcDbEntity
  8
0
  6
Continuous
100
AcDbLine
 10
515.5
 20
552.6993099999999
 30
0.0
 11
515.5
 21
547.6993099999999
 31
0.0
  0
LINE
  5
300
330
A
100
AcDbEntity
  8
0
  6
Continuous
100
AcDbLine
 10
509.7
 20
532.1993099999999
 30
0.0
 11
500.3
 21
532.1993099999999
 31
0.0
  0
LINE
  5
301
330
A
100
AcDbEntity
  8
0
  6
Continuous
100
AcDbLine
 10
500.3
 20
532.1993099999999
 30
0.0
 11
500.3
 21
546.1993099999999
 31
0.0
  0
LINE
  5
302
330
A
100
AcDbEntity
  8
0
  6
Continuous
100
AcDbLine
 10
500.3
 20
546.1993099999999
 30
0.0
 11
509.7
 21
546.1993099999999
 31
0.0
  0
LINE
  5
303
330
A
100
AcDbEntity
  8
0
  6
Continuous
100
AcDbLine
 10
509.7
 20
546.1993099999999
 30
0.0
 11
509.7
 21
532.1993099999999
 31
0.0
  0
LINE
  5
304
330
A
100
AcDbEntity
  8
0
  6
Continuous
100
AcDbLine
 10
677.5
 20
556.4993099999999
 30
0.0
 11
677.5
 21
570.19931
 31
0.0
  0
LINE
  5
305
330
A
100
AcDbEntity
  8
0
  6
Continuous
100
AcDbLine
 10
671.1464499999999
 20
566.7528629999999
 30
0.0
 11
670.0
 21
567.89931
 31
0.0
  0
LINE
  5
306
330
A
100
AcDbEntity
  8
0
  6
Continuous
100
AcDbLine
 10
670.79289
 20
565.8993099999999
 30
0.0
 11
659.2071099999999
 21
565.8993099999999
 31
0.0
  0
LINE
  5
307
330
A
100
AcDbEntity
  8
0
  6
Continuous
100
AcDbLine
 10
658.85355
 20
566.7528629999999
 30
0.0
 11
660.0
 21
567.89931
 31
0.0
  0
LINE
  5
308
330
A
100
AcDbEntity
  8
0
  6
Continuous
100
AcDbLine
 10
654.8
 20
567.89931
 30
0.0
 11
654.8
 21
554.19931
 31
0.0
  0
ARC
  5
309
330
A
100
AcDbEntity
  8
0
  6
Continuous
100
AcDbCircle
 10
708.42969
 20
588.613544
 30
0.0
 40
3.732671999999999
100
AcDbArc
 50
229.05275
 51
310.94726
  0
ARC
  5
30A
330
A
100
AcDbEntity
  8
0
  6
Continuous
100
AcDbCircle
 10
723.13715
 20
588.613544
 30
0.0
 40
3.732671999999999
100
AcDbArc
 50
229.05275
 51
310.94726
  0
ARC
  5
30B
330
A
100
AcDbEntity
  8
0
  6
Continuous
100
AcDbCircle
 10
715.7834199999999
 20
598.802753
 30
0.0
 40
13.903436
100
AcDbArc
 50
249.33103
 51
290.66897
  0
ARC
  5
30C
330
A
100
AcDbEntity
  8
0
  6
Continuous
100
AcDbCircle
 10
708.42969
 20
599.485075
 30
0.0
 40
3.732671999999999
100
AcDbArc
 50
49.052734
 51
130.94725
  0
ARC
  5
30D
330
A
100
AcDbEntity
  8
0
  6
Continuous
100
AcDbCircle
 10
723.13715
 20
599.485075
 30
0.0
 40
3.732671999999999
100
AcDbArc
 50
49.052734
 51
130.94725
  0
ARC
  5
30E
330
A
100
AcDbEntity
  8
0
  6
Continuous
100
AcDbCircle
 10
715.7834199999999
 20
589.295866
 30
0.0
 40
13.903436
100
AcDbArc
 50
69.331024
 51
110.66896
  0
ARC
  5
30F
330
A
100
AcDbEntity
  8
0
  6
Continuous
100
AcDbCircle
 10
665.0
 20
561.2493099999999
 30
0.0
 40
13.25
100
AcDbArc
 50
58.10920799999999
 51
121.89079
  0
ARC
  5
310
330
A
100
AcDbEntity
  8
0
  6
Continuous
100
AcDbCircle
 10
659.2071099999999
 20
566.3993099999999
 30
0.0
 40
0.5
100
AcDbArc
 50
135.0
 51
270.0
  0
ARC
  5
311
330
A
100
AcDbEntity
  8
0
  6
Continuous
100
AcDbCircle
 10
670.79289
 20
566.3993099999999
 30
0.0
 40
0.5
100
AcDbArc
 50
270.0
 51
45.0
  0
LINE
  5
312
330
A
100
AcDbEntity
  8
0
  6
Continuous
100
AcDbLine
 10
625.0
 20
524.19931
 30
0.0
 11
625.0
 21
522.5993099999999
 31
0.0
  0
LINE
  5
313
330
A
100
AcDbEntity
  8
0
  6
Continuous
100
AcDbLine
 10
625.0
 20
522.5993099999999
 30
0.0
 11
635.0
 21
522.5993099999999
 31
0.0
  0
LINE
  5
314
330
A
100
AcDbEntity
  8
0
  6
Continuous
100
AcDbLine
 10
635.0
 20
522.5993099999999
 30
0.0
 11
635.0
 21
514.1993099999999
 31
0.0
  0
LINE
  5
315
330
A
100
AcDbEntity
  8
0
  6
Continuous
100
AcDbLine
 10
636.6
 20
515.7993099999999
 30
0.0
 11
642.4999999999999
 21
515.7993099999999
 31
0.0
  0
LINE
  5
316
330
A
100
AcDbEntity
  8
0
  6
Continuous
100
AcDbLine
 10
667.4999999999999
 20
515.7993099999999
 30
0.0
 11
673.3999999999999
 21
515.7993099999999
 31
0.0
  0
LINE
  5
317
330
A
100
AcDbEntity
  8
0
  6
Continuous
100
AcDbLine
 10
675.0
 20
522.5993099999999
 30
0.0
 11
675.0
 21
514.1993099999999
 31
0.0
  0
LINE
  5
318
330
A
100
AcDbEntity
  8
0
  6
Continuous
100
AcDbLine
 10
667.4999999999999
 20
514.1993099999999
 30
0.0
 11
667.4999999999999
 21
519.6993099999999
 31
0.0
  0
LINE
  5
319
330
A
100
AcDbEntity
  8
0
  6
Continuous
100
AcDbLine
 10
685.0
 20
524.19931
 30
0.0
 11
685.0
 21
522.5993099999999
 31
0.0
  0
LINE
  5
31A
330
A
100
AcDbEntity
  8
0
  6
Continuous
100
AcDbLine
 10
685.0
 20
522.5993099999999
 30
0.0
 11
675.0
 21
522.5993099999999
 31
0.0
  0
LINE
  5
31B
330
A
100
AcDbEntity
  8
0
  6
Continuous
100
AcDbLine
 10
642.4999999999999
 20
514.1993099999999
 30
0.0
 11
642.4999999999999
 21
519.6993099999999
 31
0.0
  0
LINE
  5
31C
330
A
100
AcDbEntity
  8
0
  6
Continuous
100
AcDbLine
 10
491.5
 20
505.6993099999999
 30
0.0
 11
491.5
 21
503.4493099999999
 31
0.0
  0
LINE
  5
31D
330
A
100
AcDbEntity
  8
0
  6
Continuous
100
AcDbLine
 10
491.5
 20
499.9493099999999
 30
0.0
 11
491.5
 21
497.6993099999999
 31
0.0
  0
LINE
  5
31E
330
A
100
AcDbEntity
  8
0
  6
Continuous
100
AcDbLine
 10
650.4999999999999
 20
527.6993099999999
 30
0.0
 11
659.4999999999999
 21
527.6993099999999
 31
0.0
  0
ARC
  5
31F
330
A
100
AcDbEntity
  8
0
  6
Continuous
100
AcDbCircle
 10
650.4999999999999
 20
519.6993099999999
 30
0.0
 40
8.0
100
AcDbArc
 50
90.0
 51
180.0
  0
ARC
  5
320
330
A
100
AcDbEntity
  8
0
  6
Continuous
100
AcDbCircle
 10
659.4999999999999
 20
519.6993099999999
 30
0.0
 40
8.0
100
AcDbArc
 50
0.0
 51
90.0
  0
LINE
  5
321
330
A
100
AcDbEntity
  8
0
  6
Continuous
100
AcDbLine
 10
667.40394
 20
517.684644
 30
0.0
 11
659.51053
 21
520.5576129999999
 31
0.0
  0
LINE
  5
322
330
A
100
AcDbEntity
  8
0
  6
Continuous
100
AcDbLine
 10
642.5960599999999
 20
517.684644
 30
0.0
 11
650.4894799999999
 21
520.5576129999999
 31
0.0
  0
LINE
  5
323
330
A
100
AcDbEntity
  8
0
  6
Continuous
100
AcDbLine
 10
659.0
 20
528.8993099999999
 30
0.0
 11
659.0
 21
526.6714459999999
 31
0.0
  0
LINE
  5
324
330
A
100
AcDbEntity
  8
0
  6
Continuous
100
AcDbLine
 10
659.24264
 20
526.44195
 30
0.0
 11
658.3941099999999
 21
525.593423
 31
0.0
  0
LINE
  5
325
330
A
100
AcDbEntity
  8
0
  6
Continuous
100
AcDbLine
 10
659.0
 20
528.8993099999999
 30
0.0
 11
651.0
 21
528.8993099999999
 31
0.0
  0
LINE
  5
326
330
A
100
AcDbEntity
  8
0
  6
Continuous
100
AcDbLine
 10
651.0
 20
528.8993099999999
 30
0.0
 11
651.0
 21
526.6714459999999
 31
0.0
  0
LINE
  5
327
330
A
100
AcDbEntity
  8
0
  6
Continuous
100
AcDbLine
 10
650.7573599999999
 20
526.44195
 30
0.0
 11
651.60589
 21
525.5934219999999
 31
0.0
  0
ARC
  5
328
330
A
100
AcDbEntity
  8
0
  6
Continuous
100
AcDbCircle
 10
655.0
 20
522.1993099999999
 30
0.0
 40
4.799999999999999
100
AcDbArc
 50
135.0
 51
45.00000599999999
  0
ARC
  5
329
330
A
100
AcDbEntity
  8
0
  6
Continuous
100
AcDbCircle
 10
655.0
 20
522.1993099999999
 30
0.0
 40
6.0
100
AcDbArc
 50
340.0
 51
48.189685
  0
ARC
  5
32A
330
A
100
AcDbEntity
  8
0
  6
Continuous
100
AcDbCircle
 10
655.0
 20
522.1993099999999
 30
0.0
 40
6.0
100
AcDbArc
 50
131.81031
 51
199.99999
  0
CIRCLE
  5
32B
330
A
100
AcDbEntity
  8
0
  6
Continuous
100
AcDbCircle
 10
655.0
 20
522.1993099999999
 30
0.0
 40
2.25
  0
ARC
  5
32C
330
A
100
AcDbEntity
  8
0
  6
Continuous
100
AcDbCircle
 10
655.0
 20
522.1993099999999
 30
0.0
 40
13.2
100
AcDbArc
 50
199.99999
 51
339.99999
  0
ARC
  5
32D
330
A
100
AcDbEntity
  8
0
  6
Continuous
100
AcDbCircle
 10
655.0
 20
522.1993099999999
 30
0.0
 40
12.0
100
AcDbArc
 50
199.99999
 51
340.0
  0
ARC
  5
32E
330
A
100
AcDbEntity
  8
0
  6
Continuous
100
AcDbCircle
 10
655.0
 20
522.1993099999999
 30
0.0
 40
6.0
100
AcDbArc
 50
199.99999
 51
340.0
  0
LINE
  5
32F
330
A
100
AcDbEntity
  8
0
  6
DIVIDE
100
AcDbLine
 10
492.56
 20
482.699319
 30
0.0
 11
489.5162299999999
 21
458.9535989999999
 31
0.0
  0
LINE
  5
330
330
A
100
AcDbEntity
  8
0
  6
DIVIDE
100
AcDbLine
 10
502.0
 20
482.699319
 30
0.0
 11
492.56
 21
482.699319
 31
0.0
  0
LINE
  5
331
330
A
100
AcDbEntity
  8
0
  6
DIVIDE
100
AcDbLine
 10
502.5
 20
483.199319
 30
0.0
 11
502.5
 21
495.19931
 31
0.0
  0
ARC
  5
332
330
A
100
AcDbEntity
  8
0
  6
DIVIDE
100
AcDbCircle
 10
491.5
 20
458.699319
 30
0.0
 40
2.0
100
AcDbArc
 50
172.69555
 51
270.0
  0
LINE
  5
333
330
A
100
AcDbEntity
  8
0
  6
DASHDOT
100
AcDbLine
 10
494.23868
 20
489.199319
 30
0.0
 11
511.8511299999999
 21
489.199319
 31
0.0
  0
LINE
  5
334
330
A
100
AcDbEntity
  8
0
  6
DASHDOT
100
AcDbLine
 10
515.0
 20
523.020145
 30
0.0
 11
515.0
 21
505.626936
 31
0.0
  0
LINE
  5
335
330
A
100
AcDbEntity
  8
0
  6
DASHDOT
100
AcDbLine
 10
484.22662
 20
539.1993099999999
 30
0.0
 11
525.0056599999999
 21
539.1993099999999
 31
0.0
  0
LINE
  5
336
330
A
100
AcDbEntity
  8
0
  6
DASHDOT
100
AcDbLine
 10
515.0
 20
563.020145
 30
0.0
 11
515.0
 21
545.626936
 31
0.0
  0
LINE
  5
337
330
A
100
AcDbEntity
  8
0
  6
DASHDOT
100
AcDbLine
 10
555.0
 20
523.020145
 30
0.0
 11
555.0
 21
501.762794
 31
0.0
  0
LINE
  5
338
330
A
100
AcDbEntity
  8
0
  6
DASHDOT
100
AcDbLine
 10
555.0
 20
545.626936
 30
0.0
 11
555.0
 21
563.020145
 31
0.0
  0
LINE
  5
339
330
A
100
AcDbEntity
  8
0
  6
DASHDOT
100
AcDbLine
 10
528.45644
 20
586.7194409999999
 30
0.0
 11
649.7000099999999
 21
516.719433
 31
0.0
  0
LINE
  5
33A
330
A
100
AcDbEntity
  8
0
  6
DASHDOT
100
AcDbLine
 10
522.0081099999999
 20
570.350599
 30
0.0
 11
524.56149
 21
574.7731869999999
 31
0.0
  0
ARC
  5
33B
330
A
100
AcDbEntity
  8
0
  6
DASHDOT
100
AcDbCircle
 10
519.75644
 20
571.650599
 30
0.0
 40
2.6
100
AcDbArc
 50
150.0
 51
330.0
  0
LINE
  5
33C
330
A
100
AcDbEntity
  8
0
  6
DASHDOT
100
AcDbLine
 10
517.5047799999999
 20
572.9505989999999
 30
0.0
 11
524.9047799999999
 21
585.767775
 31
0.0
  0
ARC
  5
33D
330
A
100
AcDbEntity
  8
0
  6
DASHDOT
100
AcDbCircle
 10
527.15644
 20
584.4677749999999
 30
0.0
 40
2.6
100
AcDbArc
 50
60.0
 51
150.0
  0
LINE
  5
33E
330
A
100
AcDbEntity
  8
0
  6
DASHDOT
100
AcDbLine
 10
781.543552
 20
586.7194409999999
 30
0.0
 11
660.2999900000001
 21
516.719433
 31
0.0
  0
LINE
  5
33F
330
A
100
AcDbEntity
  8
0
  6
DASHDOT
100
AcDbLine
 10
646.60873
 20
522.1993099999999
 30
0.0
 11
663.3186199999999
 21
522.1993099999999
 31
0.0
  0
LINE
  5
340
330
A
100
AcDbEntity
  8
0
  6
DASHDOT
100
AcDbLine
 10
655.0
 20
562.7161749999999
 30
0.0
 11
655.0
 21
485.0710489999999
 31
0.0
  0
LINE
  5
341
330
A
100
AcDbEntity
  8
0
  6
DASHDOT
100
AcDbLine
 10
667.4999999999999
 20
532.1993099999999
 30
0.0
 11
667.4999999999999
 21
546.1993099999999
 31
0.0
  0
LINE
  5
342
330
A
100
AcDbEntity
  8
0
  6
DASHDOT
100
AcDbLine
 10
674.54684
 20
539.1993099999999
 30
0.0
 11
660.37587
 21
539.1993099999999
 31
0.0
  0
LINE
  5
343
330
A
100
AcDbEntity
  8
0
  6
DASHDOT
100
AcDbLine
 10
649.54684
 20
539.1993099999999
 30
0.0
 11
635.37587
 21
539.1993099999999
 31
0.0
  0
LINE
  5
344
330
A
100
AcDbEntity
  8
0
  6
DASHDOT
100
AcDbLine
 10
642.4999999999999
 20
546.1993099999999
 30
0.0
 11
642.4999999999999
 21
532.1993099999999
 31
0.0
  0
LINE
  5
345
330
A
100
AcDbEntity
  8
0
  6
DASHDOT
100
AcDbLine
 10
640.0
 20
543.755624
 30
0.0
 11
640.0
 21
562.719278
 31
0.0
  0
LINE
  5
346
330
A
100
AcDbEntity
  8
0
  6
DASHDOT
100
AcDbLine
 10
665.0
 20
552.4993099999999
 30
0.0
 11
665.0
 21
584.7087299999999
 31
0.0
  0
LINE
  5
347
330
A
100
AcDbEntity
  8
0
  6
DASHDOT
100
AcDbLine
 10
690.0
 20
562.719278
 30
0.0
 11
690.0
 21
543.755624
 31
0.0
  0
ARC
  5
348
330
A
100
AcDbEntity
  8
0
  6
DASHDOT
100
AcDbCircle
 10
782.8435519999999
 20
584.4677749999999
 30
0.0
 40
2.6
100
AcDbArc
 50
30.0
 51
120.0
  0
LINE
  5
349
330
A
100
AcDbEntity
  8
0
  6
DASHDOT
100
AcDbLine
 10
792.495218
 20
572.9505989999999
 30
0.0
 11
785.0952179999999
 21
585.767775
 31
0.0
  0
ARC
  5
34A
330
A
100
AcDbEntity
  8
0
  6
DASHDOT
100
AcDbCircle
 10
790.2435519999999
 20
571.650599
 30
0.0
 40
2.6
100
AcDbArc
 50
210.0
 51
30.0
  0
LINE
  5
34B
330
A
100
AcDbEntity
  8
0
  6
DASHDOT
100
AcDbLine
 10
787.991886
 20
570.350599
 30
0.0
 11
785.4385039999999
 21
574.7731869999999
 31
0.0
  0
LINE
  5
34C
330
A
100
AcDbEntity
  8
0
  6
DASHDOT
100
AcDbLine
 10
505.0
 20
563.020145
 30
0.0
 11
505.0
 21
505.626936
 31
0.0
  0
LINE
  5
34D
330
A
100
AcDbEntity
  8
0
  6
Continuous
100
AcDbLine
 10
483.71743
 20
504.3350379999999
 30
0.0
 11
480.7841299999999
 21
506.360737
 31
0.0
  0
LINE
  5
34E
330
A
100
AcDbEntity
  8
0
  6
Continuous
100
AcDbLine
 10
480.12089
 20
505.623311
 30
0.0
 11
483.5037599999999
 21
501.689317
 31
0.0
  0
ARC
  5
34F
330
A
100
AcDbEntity
  8
0
  6
Continuous
100
AcDbCircle
 10
487.2948599999999
 20
504.9493099999999
 30
0.0
 40
5.0
100
AcDbArc
 50
220.69245
 51
270.0
  0
ARC
  5
350
330
A
100
AcDbEntity
  8
0
  6
Continuous
100
AcDbCircle
 10
486.55869
 20
508.4493099999999
 30
0.0
 40
5.0
100
AcDbArc
 50
235.37155
 51
270.0
  0
ARC
  5
351
330
A
100
AcDbEntity
  8
0
  6
Continuous
100
AcDbCircle
 10
480.4999999999999
 20
505.94931
 30
0.0
 40
0.5
100
AcDbArc
 50
55.37155
 51
220.69243
  0
LINE
  5
352
330
A
100
AcDbEntity
  8
0
  6
Continuous
100
AcDbLine
 10
491.5
 20
503.4493099999999
 30
0.0
 11
486.55869
 21
503.4493099999999
 31
0.0
  0
LINE
  5
353
330
A
100
AcDbEntity
  8
0
  6
Continuous
100
AcDbLine
 10
487.2948599999999
 20
499.9493099999999
 30
0.0
 11
491.5
 21
499.9493099999999
 31
0.0
  0
LINE
  5
354
330
A
100
AcDbEntity
  8
0
  6
Continuous
100
AcDbLine
 10
495.0
 20
497.6993099999999
 30
0.0
 11
495.0
 21
505.6993099999999
 31
0.0
  0
LINE
  5
355
330
A
100
AcDbEntity
  8
0
  6
Continuous
100
AcDbLine
 10
1557.21246
 20
569.900599
 30
0.0
 11
1555.37408
 21
573.0847579999999
 31
0.0
  0
LINE
  5
356
330
A
100
AcDbEntity
  8
0
  6
Continuous
100
AcDbLine
 10
1555.37408
 20
573.0847579999999
 30
0.0
 11
1556.93293
 21
573.9847580000001
 31
0.0
  0
LINE
  5
357
330
A
100
AcDbEntity
  8
0
  6
Continuous
100
AcDbLine
 10
1556.93293
 20
573.9847580000001
 30
0.0
 11
1558.7713
 21
570.800599
 31
0.0
  0
LINE
  5
358
330
A
100
AcDbEntity
  8
0
  6
Continuous
100
AcDbLine
 10
1561.71579
 20
572.5005989999999
 30
0.0
 11
1554.31579
 21
585.3177749999999
 31
0.0
  0
LINE
  5
359
330
A
100
AcDbEntity
  8
0
  6
Continuous
100
AcDbLine
 10
1563.27464
 20
573.400599
 30
0.0
 11
1555.87464
 21
586.2177749999999
 31
0.0
  0
LINE
  5
35A
330
A
100
AcDbEntity
  8
0
  6
Continuous
100
AcDbLine
 10
1551.99355
 20
585.940018
 30
0.0
 11
1430.74998
 21
515.940013
 31
0.0
  0
LINE
  5
35B
330
A
100
AcDbEntity
  8
0
  6
Continuous
100
AcDbLine
 10
1551.09355
 20
587.4988639999998
 30
0.0
 11
1429.84998
 21
517.4988559999999
 31
0.0
  0
LINE
  5
35C
330
A
100
AcDbEntity
  8
0
  6
Continuous
100
AcDbLine
 10
1420.15
 20
517.4988559999999
 30
0.0
 11
1298.90643
 21
587.4988639999998
 31
0.0
  0
LINE
  5
35D
330
A
100
AcDbEntity
  8
0
  6
Continuous
100
AcDbLine
 10
1419.25
 20
515.940013
 30
0.0
 11
1298.00643
 21
585.940018
 31
0.0
  0
LINE
  5
35E
330
A
100
AcDbEntity
  8
0
  6
Continuous
100
AcDbLine
 10
1295.68419
 20
585.3177749999999
 30
0.0
 11
1288.28419
 21
572.5005989999999
 31
0.0
  0
LINE
  5
35F
330
A
100
AcDbEntity
  8
0
  6
Continuous
100
AcDbLine
 10
1294.12535
 20
586.2177749999999
 30
0.0
 11
1286.72535
 21
573.400599
 31
0.0
  0
LINE
  5
360
330
A
100
AcDbEntity
  8
0
  6
Continuous
100
AcDbLine
 10
1293.06705
 20
573.9847580000001
 30
0.0
 11
1291.22868
 21
570.800599
 31
0.0
  0
LINE
  5
361
330
A
100
AcDbEntity
  8
0
  6
Continuous
100
AcDbLine
 10
1294.6259
 20
573.0847579999999
 30
0.0
 11
1293.06705
 21
573.9847580000001
 31
0.0
  0
LINE
  5
362
330
A
100
AcDbEntity
  8
0
  6
Continuous
100
AcDbLine
 10
1294.6259
 20
573.0847579999999
 30
0.0
 11
1292.78752
 21
569.900599
 31
0.0
  0
CIRCLE
  5
363
330
A
100
AcDbEntity
  8
0
  6
Continuous
100
AcDbCircle
 10
1424.99999
 20
525.89931
 30
0.0
 40
9.699999999999999
  0
CIRCLE
  5
364
330
A
100
AcDbEntity
  8
0
  6
Continuous
100
AcDbCircle
 10
1424.99999
 20
525.89931
 30
0.0
 40
11.5
  0
ARC
  5
365
330
A
100
AcDbEntity
  8
0
  6
Continuous
100
AcDbCircle
 10
1560.24355
 20
571.650599
 30
0.0
 40
3.5
100
AcDbArc
 50
210.0
 51
30.0
  0
ARC
  5
366
330
A
100
AcDbEntity
  8
0
  6
Continuous
100
AcDbCircle
 10
1560.24355
 20
571.650599
 30
0.0
 40
1.7
100
AcDbArc
 50
210.0
 51
30.0
  0
ARC
  5
367
330
A
100
AcDbEntity
  8
0
  6
Continuous
100
AcDbCircle
 10
1552.84355
 20
584.4677749999999
 30
0.0
 40
3.5
100
AcDbArc
 50
30.0
 51
120.0
  0
ARC
  5
368
330
A
100
AcDbEntity
  8
0
  6
Continuous
100
AcDbCircle
 10
1552.84355
 20
584.4677749999999
 30
0.0
 40
1.7
100
AcDbArc
 50
30.0
 51
120.0
  0
ARC
  5
369
330
A
100
AcDbEntity
  8
0
  6
Continuous
100
AcDbCircle
 10
1289.75643
 20
571.650599
 30
0.0
 40
3.5
100
AcDbArc
 50
150.0
 51
330.0
  0
ARC
  5
36A
330
A
100
AcDbEntity
  8
0
  6
Continuous
100
AcDbCircle
 10
1289.75643
 20
571.650599
 30
0.0
 40
1.7
100
AcDbArc
 50
150.0
 51
330.0
  0
ARC
  5
36B
330
A
100
AcDbEntity
  8
0
  6
Continuous
100
AcDbCircle
 10
1297.15643
 20
584.4677749999999
 30
0.0
 40
3.5
100
AcDbArc
 50
60.0
 51
150.0
  0
ARC
  5
36C
330
A
100
AcDbEntity
  8
0
  6
Continuous
100
AcDbCircle
 10
1297.15643
 20
584.4677749999999
 30
0.0
 40
1.7
100
AcDbArc
 50
60.0
 51
150.0
  0
LINE
  5
36D
330
A
100
AcDbEntity
  8
0
  6
Continuous
100
AcDbLine
 10
1564.49999
 20
512.19931
 30
0.0
 11
1571.49999
 21
512.19931
 31
0.0
  0
LINE
  5
36E
330
A
100
AcDbEntity
  8
0
  6
Continuous
100
AcDbLine
 10
1571.49999
 20
512.19931
 30
0.0
 11
1571.49999
 21
514.1993099999999
 31
0.0
  0
LINE
  5
36F
330
A
100
AcDbEntity
  8
0
  6
Continuous
100
AcDbLine
 10
1571.49999
 20
514.1993099999999
 30
0.0
 11
1562.99999
 21
514.1993099999999
 31
0.0
  0
LINE
  5
370
330
A
100
AcDbEntity
  8
0
  6
Continuous
100
AcDbLine
 10
1562.99999
 20
514.1993099999999
 30
0.0
 11
1562.99999
 21
507.1993099999999
 31
0.0
  0
LINE
  5
371
330
A
100
AcDbEntity
  8
0
  6
Continuous
100
AcDbLine
 10
1562.99999
 20
507.1993099999999
 30
0.0
 11
1559.99999
 21
507.1993099999999
 31
0.0
  0
LINE
  5
372
330
A
100
AcDbEntity
  8
0
  6
Continuous
100
AcDbLine
 10
1559.99999
 20
507.1993099999999
 30
0.0
 11
1559.99999
 21
493.362261
 31
0.0
  0
LINE
  5
373
330
A
100
AcDbEntity
  8
0
  6
Continuous
100
AcDbLine
 10
1561.69999
 20
493.362261
 30
0.0
 11
1561.69999
 21
503.19931
 31
0.0
  0
LINE
  5
374
330
A
100
AcDbEntity
  8
0
  6
Continuous
100
AcDbLine
 10
1562.69999
 20
504.19931
 30
0.0
 11
1581.39999
 21
504.19931
 31
0.0
  0
LINE
  5
375
330
A
100
AcDbEntity
  8
0
  6
Continuous
100
AcDbLine
 10
1582.39999
 20
503.19931
 30
0.0
 11
1582.39999
 21
499.19931
 31
0.0
  0
LINE
  5
376
330
A
100
AcDbEntity
  8
0
  6
Continuous
100
AcDbLine
 10
1581.39999
 20
498.1993099999999
 30
0.0
 11
1573.99999
 21
498.1993099999999
 31
0.0
  0
LINE
  5
377
330
A
100
AcDbEntity
  8
0
  6
Continuous
100
AcDbLine
 10
1572.99999
 20
497.1993099999999
 30
0.0
 11
1572.99999
 21
484.499319
 31
0.0
  0
LINE
  5
378
330
A
100
AcDbEntity
  8
0
  6
Continuous
100
AcDbLine
 10
1570.99999
 20
482.4993189999999
 30
0.0
 11
1566.32015
 21
482.4993189999999
 31
0.0
  0
LINE
  5
379
330
A
100
AcDbEntity
  8
0
  6
Continuous
100
AcDbLine
 10
1565.85786
 20
479.220129
 30
0.0
 11
1587.43839
 21
457.639599
 31
0.0
  0
LINE
  5
37A
330
A
100
AcDbEntity
  8
0
  6
Continuous
100
AcDbLine
 10
1589.98782
 20
458.890029
 30
0.0
 11
1586.99999
 21
482.199319
 31
0.0
  0
LINE
  5
37B
330
A
100
AcDbEntity
  8
0
  6
Continuous
100
AcDbLine
 10
1586.99999
 20
482.199319
 30
0.0
 11
1577.99999
 21
482.199319
 31
0.0
  0
LINE
  5
37C
330
A
100
AcDbEntity
  8
0
  6
Continuous
100
AcDbLine
 10
1587.85467
 20
462.160719
 30
0.0
 11
1585.61588
 21
479.6264589999999
 31
0.0
  0
LINE
  5
37D
330
A
100
AcDbEntity
  8
0
  6
Continuous
100
AcDbLine
 10
1584.62399
 20
480.499319
 30
0.0
 11
1569.39705
 21
480.499319
 31
0.0
  0
LINE
  5
37E
330
A
100
AcDbEntity
  8
0
  6
Continuous
100
AcDbLine
 10
1568.68994
 20
478.7922089999999
 30
0.0
 11
1586.15567
 21
461.326479
 31
0.0
  0
LINE
  5
37F
330
A
100
AcDbEntity
  8
0
  6
Continuous
100
AcDbLine
 10
1576.99999
 20
495.19931
 30
0.0
 11
1576.99999
 21
483.199319
 31
0.0
  0
LINE
  5
380
330
A
100
AcDbEntity
  8
0
  6
Continuous
100
AcDbLine
 10
1577.99999
 20
496.1993099999999
 30
0.0
 11
1589.99999
 21
496.1993099999999
 31
0.0
  0
LINE
  5
381
330
A
100
AcDbEntity
  8
0
  6
Continuous
100
AcDbLine
 10
1589.99999
 20
496.1993099999999
 30
0.0
 11
1589.99999
 21
499.69931
 31
0.0
  0
LINE
  5
382
330
A
100
AcDbEntity
  8
0
  6
Continuous
100
AcDbLine
 10
1589.99999
 20
499.69931
 30
0.0
 11
1588.49999
 21
499.69931
 31
0.0
  0
LINE
  5
383
330
A
100
AcDbEntity
  8
0
  6
Continuous
100
AcDbLine
 10
1588.49999
 20
497.6993099999999
 30
0.0
 11
1584.39999
 21
497.6993099999999
 31
0.0
  0
LINE
  5
384
330
A
100
AcDbEntity
  8
0
  6
Continuous
100
AcDbLine
 10
1584.39999
 20
497.6993099999999
 30
0.0
 11
1584.39999
 21
505.6993099999999
 31
0.0
  0
LINE
  5
385
330
A
100
AcDbEntity
  8
0
  6
Continuous
100
AcDbLine
 10
1584.39999
 20
505.6993099999999
 30
0.0
 11
1588.49999
 21
505.6993099999999
 31
0.0
  0
LINE
  5
386
330
A
100
AcDbEntity
  8
0
  6
Continuous
100
AcDbLine
 10
1588.49999
 20
503.69931
 30
0.0
 11
1589.99999
 21
503.69931
 31
0.0
  0
LINE
  5
387
330
A
100
AcDbEntity
  8
0
  6
Continuous
100
AcDbLine
 10
1589.99999
 20
503.69931
 30
0.0
 11
1589.99999
 21
507.1993099999999
 31
0.0
  0
LINE
  5
388
330
A
100
AcDbEntity
  8
0
  6
Continuous
100
AcDbLine
 10
1589.99999
 20
507.1993099999999
 30
0.0
 11
1586.99999
 21
507.1993099999999
 31
0.0
  0
LINE
  5
389
330
A
100
AcDbEntity
  8
0
  6
Continuous
100
AcDbLine
 10
1586.99999
 20
507.1993099999999
 30
0.0
 11
1586.99999
 21
514.1993099999999
 31
0.0
  0
LINE
  5
38A
330
A
100
AcDbEntity
  8
0
  6
Continuous
100
AcDbLine
 10
1586.99999
 20
514.1993099999999
 30
0.0
 11
1578.49999
 21
514.1993099999999
 31
0.0
  0
LINE
  5
38B
330
A
100
AcDbEntity
  8
0
  6
Continuous
100
AcDbLine
 10
1578.49999
 20
514.1993099999999
 30
0.0
 11
1578.49999
 21
512.19931
 31
0.0
  0
LINE
  5
38C
330
A
100
AcDbEntity
  8
0
  6
Continuous
100
AcDbLine
 10
1578.49999
 20
512.19931
 30
0.0
 11
1585.49999
 21
512.19931
 31
0.0
  0
LINE
  5
38D
330
A
100
AcDbEntity
  8
0
  6
Continuous
100
AcDbLine
 10
1585.49999
 20
512.19931
 30
0.0
 11
1585.49999
 21
507.1993099999999
 31
0.0
  0
LINE
  5
38E
330
A
100
AcDbEntity
  8
0
  6
Continuous
100
AcDbLine
 10
1585.49999
 20
507.1993099999999
 30
0.0
 11
1564.49999
 21
507.1993099999999
 31
0.0
  0
LINE
  5
38F
330
A
100
AcDbEntity
  8
0
  6
Continuous
100
AcDbLine
 10
1564.49999
 20
507.1993099999999
 30
0.0
 11
1564.49999
 21
512.19931
 31
0.0
  0
ARC
  5
390
330
A
100
AcDbEntity
  8
0
  6
Continuous
100
AcDbCircle
 10
1588.49999
 20
458.699319
 30
0.0
 40
1.5
100
AcDbArc
 50
224.94914
 51
7.304446000000001
  0
ARC
  5
391
330
A
100
AcDbEntity
  8
0
  6
Continuous
100
AcDbCircle
 10
1586.86278
 20
462.033579
 30
0.0
 40
1.0
100
AcDbArc
 50
225.0
 51
7.304446000000001
  0
ARC
  5
392
330
A
100
AcDbEntity
  8
0
  6
Continuous
100
AcDbCircle
 10
1584.62399
 20
479.499319
 30
0.0
 40
1.0
100
AcDbArc
 50
7.304446000000001
 51
90.0
  0
ARC
  5
393
330
A
100
AcDbEntity
  8
0
  6
Continuous
100
AcDbCircle
 10
1569.39705
 20
479.499319
 30
0.0
 40
1.0
100
AcDbArc
 50
90.0
 51
225.0
  0
ARC
  5
394
330
A
100
AcDbEntity
  8
0
  6
Continuous
100
AcDbCircle
 10
1579.99999
 20
493.362261
 30
0.0
 40
20.0
100
AcDbArc
 50
180.0
 51
225.0
  0
ARC
  5
395
330
A
100
AcDbEntity
  8
0
  6
Continuous
100
AcDbCircle
 10
1570.99999
 20
484.499319
 30
0.0
 40
2.0
100
AcDbArc
 50
270.0
 51
0.0
  0
ARC
  5
396
330
A
100
AcDbEntity
  8
0
  6
Continuous
100
AcDbCircle
 10
1579.99999
 20
493.362261
 30
0.0
 40
18.3
100
AcDbArc
 50
180.0
 51
212.93855
  0
ARC
  5
397
330
A
100
AcDbEntity
  8
0
  6
Continuous
100
AcDbCircle
 10
1566.32015
 20
484.499319
 30
0.0
 40
2.0
100
AcDbArc
 50
212.93855
 51
270.0
  0
ARC
  5
398
330
A
100
AcDbEntity
  8
0
  6
Continuous
100
AcDbCircle
 10
1577.99999
 20
495.19931
 30
0.0
 40
1.0
100
AcDbArc
 50
90.0
 51
180.0
  0
ARC
  5
399
330
A
100
AcDbEntity
  8
0
  6
Continuous
100
AcDbCircle
 10
1577.99999
 20
483.199319
 30
0.0
 40
1.0
100
AcDbArc
 50
180.0
 51
270.0
  0
ARC
  5
39A
330
A
100
AcDbEntity
  8
0
  6
Continuous
100
AcDbCircle
 10
1562.69999
 20
503.19931
 30
0.0
 40
1.0
100
AcDbArc
 50
90.0
 51
180.0
  0
ARC
  5
39B
330
A
100
AcDbEntity
  8
0
  6
Continuous
100
AcDbCircle
 10
1581.39999
 20
503.19931
 30
0.0
 40
1.0
100
AcDbArc
 50
0.0
 51
90.0
  0
ARC
  5
39C
330
A
100
AcDbEntity
  8
0
  6
Continuous
100
AcDbCircle
 10
1581.39999
 20
499.19931
 30
0.0
 40
1.0
100
AcDbArc
 50
270.0
 51
0.0
  0
ARC
  5
39D
330
A
100
AcDbEntity
  8
0
  6
Continuous
100
AcDbCircle
 10
1573.99999
 20
497.1993099999999
 30
0.0
 40
1.0
100
AcDbArc
 50
90.0
 51
180.0
  0
LINE
  5
39E
330
A
100
AcDbEntity
  8
0
  6
Continuous
100
AcDbLine
 10
1564.99999
 20
557.39931
 30
0.0
 11
1584.99999
 21
557.39931
 31
0.0
  0
LINE
  5
39F
330
A
100
AcDbEntity
  8
0
  6
Continuous
100
AcDbLine
 10
1584.99999
 20
557.39931
 30
0.0
 11
1584.99999
 21
554.19931
 31
0.0
  0
LINE
  5
3A0
330
A
100
AcDbEntity
  8
0
  6
Continuous
100
AcDbLine
 10
1584.99999
 20
554.19931
 30
0.0
 11
1564.99999
 21
554.19931
 31
0.0
  0
LINE
  5
3A1
330
A
100
AcDbEntity
  8
0
  6
Continuous
100
AcDbLine
 10
1564.99999
 20
549.4993099999999
 30
0.0
 11
1584.99999
 21
549.4993099999999
 31
0.0
  0
LINE
  5
3A2
330
A
100
AcDbEntity
  8
0
  6
Continuous
100
AcDbLine
 10
1584.99999
 20
549.4993099999999
 30
0.0
 11
1584.99999
 21
552.6993099999999
 31
0.0
  0
LINE
  5
3A3
330
A
100
AcDbEntity
  8
0
  6
Continuous
100
AcDbLine
 10
1584.99999
 20
552.6993099999999
 30
0.0
 11
1564.99999
 21
552.6993099999999
 31
0.0
  0
LINE
  5
3A4
330
A
100
AcDbEntity
  8
0
  6
Continuous
100
AcDbLine
 10
1564.99999
 20
557.39931
 30
0.0
 11
1514.99999
 21
557.39931
 31
0.0
  0
LINE
  5
3A5
330
A
100
AcDbEntity
  8
0
  6
Continuous
100
AcDbLine
 10
1514.99999
 20
557.39931
 30
0.0
 11
1514.99999
 21
554.19931
 31
0.0
  0
LINE
  5
3A6
330
A
100
AcDbEntity
  8
0
  6
Continuous
100
AcDbLine
 10
1376.79999
 20
592.89931
 30
0.0
 11
1376.79999
 21
595.19931
 31
0.0
  0
LINE
  5
3A7
330
A
100
AcDbEntity
  8
0
  6
Continuous
100
AcDbLine
 10
1392.49999
 20
592.89931
 30
0.0
 11
1349.79999
 21
592.89931
 31
0.0
  0
LINE
  5
3A8
330
A
100
AcDbEntity
  8
0
  6
Continuous
100
AcDbLine
 10
1349.79999
 20
592.89931
 30
0.0
 11
1349.79999
 21
595.19931
 31
0.0
  0
LINE
  5
3A9
330
A
100
AcDbEntity
  8
0
  6
Continuous
100
AcDbLine
 10
1349.79999
 20
595.19931
 30
0.0
 11
1394.79999
 21
595.19931
 31
0.0
  0
LINE
  5
3AA
330
A
100
AcDbEntity
  8
0
  6
Continuous
100
AcDbLine
 10
1394.79999
 20
595.19931
 30
0.0
 11
1394.79999
 21
572.4993099999998
 31
0.0
  0
LINE
  5
3AB
330
A
100
AcDbEntity
  8
0
  6
Continuous
100
AcDbLine
 10
1394.79999
 20
572.4993099999998
 30
0.0
 11
1427.49999
 21
572.4993099999998
 31
0.0
  0
LINE
  5
3AC
330
A
100
AcDbEntity
  8
0
  6
Continuous
100
AcDbLine
 10
1427.49999
 20
572.4993099999998
 30
0.0
 11
1427.49999
 21
570.19931
 31
0.0
  0
LINE
  5
3AD
330
A
100
AcDbEntity
  8
0
  6
Continuous
100
AcDbLine
 10
1439.99999
 20
524.19931
 30
0.0
 11
1439.99999
 21
525.39931
 31
0.0
  0
LINE
  5
3AE
330
A
100
AcDbEntity
  8
0
  6
Continuous
100
AcDbLine
 10
1446.19999
 20
522.1993099999999
 30
0.0
 11
1446.19999
 21
524.19931
 31
0.0
  0
LINE
  5
3AF
330
A
100
AcDbEntity
  8
0
  6
Continuous
100
AcDbLine
 10
1409.99999
 20
525.39931
 30
0.0
 11
1409.99999
 21
524.19931
 31
0.0
  0
LINE
  5
3B0
330
A
100
AcDbEntity
  8
0
  6
Continuous
100
AcDbLine
 10
1403.79999
 20
522.1993099999999
 30
0.0
 11
1403.79999
 21
524.19931
 31
0.0
  0
LINE
  5
3B1
330
A
100
AcDbEntity
  8
0
  6
Continuous
100
AcDbLine
 10
1394.99999
 20
549.19931
 30
0.0
 11
1454.99999
 21
549.19931
 31
0.0
  0
LINE
  5
3B2
330
A
100
AcDbEntity
  8
0
  6
Continuous
100
AcDbLine
 10
1392.49999
 20
592.89931
 30
0.0
 11
1392.49999
 21
570.19931
 31
0.0
  0
LINE
  5
3B3
330
A
100
AcDbEntity
  8
0
  6
Continuous
100
AcDbLine
 10
1514.99999
 20
517.39931
 30
0.0
 11
1564.99999
 21
517.39931
 31
0.0
  0
LINE
  5
3B4
330
A
100
AcDbEntity
  8
0
  6
Continuous
100
AcDbLine
 10
1564.99999
 20
517.39931
 30
0.0
 11
1584.99999
 21
517.39931
 31
0.0
  0
LINE
  5
3B5
330
A
100
AcDbEntity
  8
0
  6
Continuous
100
AcDbLine
 10
1584.99999
 20
517.39931
 30
0.0
 11
1584.99999
 21
514.1993099999999
 31
0.0
  0
LINE
  5
3B6
330
A
100
AcDbEntity
  8
0
  6
Continuous
100
AcDbLine
 10
1584.99999
 20
514.1993099999999
 30
0.0
 11
1564.99999
 21
514.1993099999999
 31
0.0
  0
LINE
  5
3B7
330
A
100
AcDbEntity
  8
0
  6
Continuous
100
AcDbLine
 10
1564.99999
 20
514.1993099999999
 30
0.0
 11
1564.99999
 21
517.39931
 31
0.0
  0
LINE
  5
3B8
330
A
100
AcDbEntity
  8
0
  6
Continuous
100
AcDbLine
 10
1564.99999
 20
512.19931
 30
0.0
 11
1564.99999
 21
508.99931
 31
0.0
  0
LINE
  5
3B9
330
A
100
AcDbEntity
  8
0
  6
Continuous
100
AcDbLine
 10
1564.99999
 20
508.99931
 30
0.0
 11
1584.99999
 21
508.99931
 31
0.0
  0
LINE
  5
3BA
330
A
100
AcDbEntity
  8
0
  6
Continuous
100
AcDbLine
 10
1584.99999
 20
508.99931
 30
0.0
 11
1584.99999
 21
512.19931
 31
0.0
  0
LINE
  5
3BB
330
A
100
AcDbEntity
  8
0
  6
Continuous
100
AcDbLine
 10
1584.99999
 20
512.19931
 30
0.0
 11
1564.99999
 21
512.19931
 31
0.0
  0
LINE
  5
3BC
330
A
100
AcDbEntity
  8
0
  6
Continuous
100
AcDbLine
 10
1585.99999
 20
483.199319
 30
0.0
 11
1585.99999
 21
485.199319
 31
0.0
  0
LINE
  5
3BD
330
A
100
AcDbEntity
  8
0
  6
Continuous
100
AcDbLine
 10
1585.99999
 20
485.199319
 30
0.0
 11
1579.99999
 21
485.199319
 31
0.0
  0
LINE
  5
3BE
330
A
100
AcDbEntity
  8
0
  6
Continuous
100
AcDbLine
 10
1579.99999
 20
485.199319
 30
0.0
 11
1579.99999
 21
493.1993099999999
 31
0.0
  0
LINE
  5
3BF
330
A
100
AcDbEntity
  8
0
  6
Continuous
100
AcDbLine
 10
1579.99999
 20
493.1993099999999
 30
0.0
 11
1585.99999
 21
493.1993099999999
 31
0.0
  0
LINE
  5
3C0
330
A
100
AcDbEntity
  8
0
  6
Continuous
100
AcDbLine
 10
1585.99999
 20
493.1993099999999
 30
0.0
 11
1585.99999
 21
495.19931
 31
0.0
  0
LINE
  5
3C1
330
A
100
AcDbEntity
  8
0
  6
Continuous
100
AcDbLine
 10
1585.99999
 20
495.19931
 30
0.0
 11
1577.99999
 21
495.19931
 31
0.0
  0
LINE
  5
3C2
330
A
100
AcDbEntity
  8
0
  6
Continuous
100
AcDbLine
 10
1577.99999
 20
495.19931
 30
0.0
 11
1577.99999
 21
483.199319
 31
0.0
  0
LINE
  5
3C3
330
A
100
AcDbEntity
  8
0
  6
Continuous
100
AcDbLine
 10
1577.99999
 20
483.199319
 30
0.0
 11
1585.99999
 21
483.199319
 31
0.0
  0
LINE
  5
3C4
330
A
100
AcDbEntity
  8
0
  6
Continuous
100
AcDbLine
 10
1570.99999
 20
491.19931
 30
0.0
 11
1570.99999
 21
487.199319
 31
0.0
  0
LINE
  5
3C5
330
A
100
AcDbEntity
  8
0
  6
Continuous
100
AcDbLine
 10
1570.99999
 20
487.199319
 30
0.0
 11
1579.99999
 21
487.199319
 31
0.0
  0
LINE
  5
3C6
330
A
100
AcDbEntity
  8
0
  6
Continuous
100
AcDbLine
 10
1579.99999
 20
485.599319
 30
0.0
 11
1580.84768
 21
485.599319
 31
0.0
  0
LINE
  5
3C7
330
A
100
AcDbEntity
  8
0
  6
Continuous
100
AcDbLine
 10
1579.99999
 20
491.19931
 30
0.0
 11
1570.99999
 21
491.19931
 31
0.0
  0
LINE
  5
3C8
330
A
100
AcDbEntity
  8
0
  6
Continuous
100
AcDbLine
 10
1579.99999
 20
492.7993099999999
 30
0.0
 11
1580.84768
 21
492.7993099999999
 31
0.0
  0
LINE
  5
3C9
330
A
100
AcDbEntity
  8
0
  6
Continuous
100
AcDbLine
 10
1514.99999
 20
514.1993099999999
 30
0.0
 11
1514.99999
 21
517.39931
 31
0.0
  0
ARC
  5
3CA
330
A
100
AcDbEntity
  8
0
  6
Continuous
100
AcDbCircle
 10
1580.84768
 20
491.27931
 30
0.0
 40
1.52
100
AcDbArc
 50
14.917369
 51
90.0
  0
ARC
  5
3CB
330
A
100
AcDbEntity
  8
0
  6
Continuous
100
AcDbCircle
 10
1580.84768
 20
487.119319
 30
0.0
 40
1.52
100
AcDbArc
 50
270.0
 51
345.08263
  0
ARC
  5
3CC
330
A
100
AcDbEntity
  8
0
  6
Continuous
100
AcDbCircle
 10
1573.03999
 20
489.199319
 30
0.0
 40
9.599999999999999
100
AcDbArc
 50
345.08263
 51
14.917369
  0
ARC
  5
3CD
330
A
100
AcDbEntity
  8
0
  6
Continuous
100
AcDbCircle
 10
1424.99999
 20
497.6940469999999
 30
0.0
 40
31.505263
100
AcDbArc
 50
61.568293
 51
118.4317
  0
CIRCLE
  5
3CE
330
A
100
AcDbEntity
  8
0
  6
Continuous
100
AcDbCircle
 10
1412.49999
 20
539.1993099999999
 30
0.0
 40
2.75
  0
CIRCLE
  5
3CF
330
A
100
AcDbEntity
  8
0
  6
Continuous
100
AcDbCircle
 10
1437.49999
 20
539.1993099999999
 30
0.0
 40
2.75
  0
LINE
  5
3D0
330
A
100
AcDbEntity
  8
0
  6
Continuous
100
AcDbLine
 10
1562.99999
 20
554.19931
 30
0.0
 11
1571.49999
 21
554.19931
 31
0.0
  0
LINE
  5
3D1
330
A
100
AcDbEntity
  8
0
  6
Continuous
100
AcDbLine
 10
1571.49999
 20
554.19931
 30
0.0
 11
1571.49999
 21
552.6993099999999
 31
0.0
  0
LINE
  5
3D2
330
A
100
AcDbEntity
  8
0
  6
Continuous
100
AcDbLine
 10
1571.49999
 20
552.6993099999999
 30
0.0
 11
1564.49999
 21
552.6993099999999
 31
0.0
  0
LINE
  5
3D3
330
A
100
AcDbEntity
  8
0
  6
Continuous
100
AcDbLine
 10
1564.49999
 20
552.6993099999999
 30
0.0
 11
1564.49999
 21
547.6993099999999
 31
0.0
  0
LINE
  5
3D4
330
A
100
AcDbEntity
  8
0
  6
Continuous
100
AcDbLine
 10
1564.49999
 20
547.6993099999999
 30
0.0
 11
1585.49999
 21
547.6993099999999
 31
0.0
  0
LINE
  5
3D5
330
A
100
AcDbEntity
  8
0
  6
Continuous
100
AcDbLine
 10
1585.49999
 20
547.6993099999999
 30
0.0
 11
1585.49999
 21
552.6993099999999
 31
0.0
  0
LINE
  5
3D6
330
A
100
AcDbEntity
  8
0
  6
Continuous
100
AcDbLine
 10
1585.49999
 20
552.6993099999999
 30
0.0
 11
1578.49999
 21
552.6993099999999
 31
0.0
  0
LINE
  5
3D7
330
A
100
AcDbEntity
  8
0
  6
Continuous
100
AcDbLine
 10
1578.49999
 20
552.6993099999999
 30
0.0
 11
1578.49999
 21
554.19931
 31
0.0
  0
LINE
  5
3D8
330
A
100
AcDbEntity
  8
0
  6
Continuous
100
AcDbLine
 10
1578.49999
 20
554.19931
 30
0.0
 11
1586.99999
 21
554.19931
 31
0.0
  0
LINE
  5
3D9
330
A
100
AcDbEntity
  8
0
  6
Continuous
100
AcDbLine
 10
1586.99999
 20
554.19931
 30
0.0
 11
1586.99999
 21
547.6993099999999
 31
0.0
  0
LINE
  5
3DA
330
A
100
AcDbEntity
  8
0
  6
Continuous
100
AcDbLine
 10
1586.99999
 20
547.6993099999999
 30
0.0
 11
1589.99999
 21
547.6993099999999
 31
0.0
  0
LINE
  5
3DB
330
A
100
AcDbEntity
  8
0
  6
Continuous
100
AcDbLine
 10
1589.99999
 20
547.6993099999999
 30
0.0
 11
1589.99999
 21
543.6993099999999
 31
0.0
  0
LINE
  5
3DC
330
A
100
AcDbEntity
  8
0
  6
Continuous
100
AcDbLine
 10
1589.99999
 20
543.6993099999999
 30
0.0
 11
1588.49999
 21
543.6993099999999
 31
0.0
  0
LINE
  5
3DD
330
A
100
AcDbEntity
  8
0
  6
Continuous
100
AcDbLine
 10
1588.49999
 20
543.6993099999999
 30
0.0
 11
1588.49999
 21
546.1993099999999
 31
0.0
  0
LINE
  5
3DE
330
A
100
AcDbEntity
  8
0
  6
Continuous
100
AcDbLine
 10
1588.49999
 20
546.1993099999999
 30
0.0
 11
1581.49999
 21
546.1993099999999
 31
0.0
  0
LINE
  5
3DF
330
A
100
AcDbEntity
  8
0
  6
Continuous
100
AcDbLine
 10
1581.49999
 20
546.1993099999999
 30
0.0
 11
1581.49999
 21
532.1993099999999
 31
0.0
  0
LINE
  5
3E0
330
A
100
AcDbEntity
  8
0
  6
Continuous
100
AcDbLine
 10
1581.49999
 20
532.1993099999999
 30
0.0
 11
1588.49999
 21
532.1993099999999
 31
0.0
  0
LINE
  5
3E1
330
A
100
AcDbEntity
  8
0
  6
Continuous
100
AcDbLine
 10
1588.49999
 20
532.1993099999999
 30
0.0
 11
1588.49999
 21
534.6993099999999
 31
0.0
  0
LINE
  5
3E2
330
A
100
AcDbEntity
  8
0
  6
Continuous
100
AcDbLine
 10
1588.49999
 20
534.6993099999999
 30
0.0
 11
1589.99999
 21
534.6993099999999
 31
0.0
  0
LINE
  5
3E3
330
A
100
AcDbEntity
  8
0
  6
Continuous
100
AcDbLine
 10
1589.99999
 20
534.6993099999999
 30
0.0
 11
1589.99999
 21
530.6993099999999
 31
0.0
  0
LINE
  5
3E4
330
A
100
AcDbEntity
  8
0
  6
Continuous
100
AcDbLine
 10
1589.99999
 20
530.6993099999999
 30
0.0
 11
1586.99999
 21
530.6993099999999
 31
0.0
  0
LINE
  5
3E5
330
A
100
AcDbEntity
  8
0
  6
Continuous
100
AcDbLine
 10
1586.99999
 20
530.6993099999999
 30
0.0
 11
1586.99999
 21
524.19931
 31
0.0
  0
LINE
  5
3E6
330
A
100
AcDbEntity
  8
0
  6
Continuous
100
AcDbLine
 10
1586.99999
 20
524.19931
 30
0.0
 11
1578.49999
 21
524.19931
 31
0.0
  0
LINE
  5
3E7
330
A
100
AcDbEntity
  8
0
  6
Continuous
100
AcDbLine
 10
1578.49999
 20
524.19931
 30
0.0
 11
1578.49999
 21
525.6993099999999
 31
0.0
  0
LINE
  5
3E8
330
A
100
AcDbEntity
  8
0
  6
Continuous
100
AcDbLine
 10
1578.49999
 20
525.6993099999999
 30
0.0
 11
1585.49999
 21
525.6993099999999
 31
0.0
  0
LINE
  5
3E9
330
A
100
AcDbEntity
  8
0
  6
Continuous
100
AcDbLine
 10
1585.49999
 20
525.6993099999999
 30
0.0
 11
1585.49999
 21
530.6993099999999
 31
0.0
  0
LINE
  5
3EA
330
A
100
AcDbEntity
  8
0
  6
Continuous
100
AcDbLine
 10
1585.49999
 20
530.6993099999999
 30
0.0
 11
1564.49999
 21
530.6993099999999
 31
0.0
  0
LINE
  5
3EB
330
A
100
AcDbEntity
  8
0
  6
Continuous
100
AcDbLine
 10
1564.49999
 20
530.6993099999999
 30
0.0
 11
1564.49999
 21
525.6993099999999
 31
0.0
  0
LINE
  5
3EC
330
A
100
AcDbEntity
  8
0
  6
Continuous
100
AcDbLine
 10
1564.49999
 20
525.6993099999999
 30
0.0
 11
1571.49999
 21
525.6993099999999
 31
0.0
  0
LINE
  5
3ED
330
A
100
AcDbEntity
  8
0
  6
Continuous
100
AcDbLine
 10
1571.49999
 20
525.6993099999999
 30
0.0
 11
1571.49999
 21
524.19931
 31
0.0
  0
LINE
  5
3EE
330
A
100
AcDbEntity
  8
0
  6
Continuous
100
AcDbLine
 10
1571.49999
 20
524.19931
 30
0.0
 11
1562.99999
 21
524.19931
 31
0.0
  0
LINE
  5
3EF
330
A
100
AcDbEntity
  8
0
  6
Continuous
100
AcDbLine
 10
1562.99999
 20
524.19931
 30
0.0
 11
1562.99999
 21
530.6993099999999
 31
0.0
  0
LINE
  5
3F0
330
A
100
AcDbEntity
  8
0
  6
Continuous
100
AcDbLine
 10
1562.99999
 20
530.6993099999999
 30
0.0
 11
1559.99999
 21
530.6993099999999
 31
0.0
  0
LINE
  5
3F1
330
A
100
AcDbEntity
  8
0
  6
Continuous
100
AcDbLine
 10
1559.99999
 20
530.6993099999999
 30
0.0
 11
1559.99999
 21
534.6993099999999
 31
0.0
  0
LINE
  5
3F2
330
A
100
AcDbEntity
  8
0
  6
Continuous
100
AcDbLine
 10
1559.99999
 20
534.6993099999999
 30
0.0
 11
1561.49999
 21
534.6993099999999
 31
0.0
  0
LINE
  5
3F3
330
A
100
AcDbEntity
  8
0
  6
Continuous
100
AcDbLine
 10
1561.49999
 20
534.6993099999999
 30
0.0
 11
1561.49999
 21
532.1993099999999
 31
0.0
  0
LINE
  5
3F4
330
A
100
AcDbEntity
  8
0
  6
Continuous
100
AcDbLine
 10
1561.49999
 20
532.1993099999999
 30
0.0
 11
1568.49999
 21
532.1993099999999
 31
0.0
  0
LINE
  5
3F5
330
A
100
AcDbEntity
  8
0
  6
Continuous
100
AcDbLine
 10
1568.49999
 20
532.1993099999999
 30
0.0
 11
1568.49999
 21
546.1993099999999
 31
0.0
  0
LINE
  5
3F6
330
A
100
AcDbEntity
  8
0
  6
Continuous
100
AcDbLine
 10
1568.49999
 20
546.1993099999999
 30
0.0
 11
1561.49999
 21
546.1993099999999
 31
0.0
  0
LINE
  5
3F7
330
A
100
AcDbEntity
  8
0
  6
Continuous
100
AcDbLine
 10
1561.49999
 20
546.1993099999999
 30
0.0
 11
1561.49999
 21
543.6993099999999
 31
0.0
  0
LINE
  5
3F8
330
A
100
AcDbEntity
  8
0
  6
Continuous
100
AcDbLine
 10
1561.49999
 20
543.6993099999999
 30
0.0
 11
1559.99999
 21
543.6993099999999
 31
0.0
  0
LINE
  5
3F9
330
A
100
AcDbEntity
  8
0
  6
Continuous
100
AcDbLine
 10
1559.99999
 20
543.6993099999999
 30
0.0
 11
1559.99999
 21
547.6993099999999
 31
0.0
  0
LINE
  5
3FA
330
A
100
AcDbEntity
  8
0
  6
Continuous
100
AcDbLine
 10
1559.99999
 20
547.6993099999999
 30
0.0
 11
1562.99999
 21
547.6993099999999
 31
0.0
  0
LINE
  5
3FB
330
A
100
AcDbEntity
  8
0
  6
Continuous
100
AcDbLine
 10
1562.99999
 20
547.6993099999999
 30
0.0
 11
1562.99999
 21
554.19931
 31
0.0
  0
LINE
  5
3FC
330
A
100
AcDbEntity
  8
0
  6
Continuous
100
AcDbLine
 10
1359.21657
 20
584.89931
 30
0.0
 11
1359.21657
 21
573.9374609999999
 31
0.0
  0
LINE
  5
3FD
330
A
100
AcDbEntity
  8
0
  6
Continuous
100
AcDbLine
 10
1359.21657
 20
573.9374609999999
 30
0.0
 11
1360.21657
 21
572.9374609999999
 31
0.0
  0
LINE
  5
3FE
330
A
100
AcDbEntity
  8
0
  6
Continuous
100
AcDbLine
 10
1360.21657
 20
572.9374609999999
 30
0.0
 11
1368.21657
 21
572.9374609999999
 31
0.0
  0
LINE
  5
3FF
330
A
100
AcDbEntity
  8
0
  6
Continuous
100
AcDbLine
 10
1369.21657
 20
584.89931
 30
0.0
 11
1369.21657
 21
573.9374609999999
 31
0.0
  0
LINE
  5
400
330
A
100
AcDbEntity
  8
0
  6
Continuous
100
AcDbLine
 10
1369.21657
 20
573.9374609999999
 30
0.0
 11
1368.21657
 21
572.9374609999999
 31
0.0
  0
LINE
  5
401
330
A
100
AcDbEntity
  8
0
  6
Continuous
100
AcDbLine
 10
1359.3091
 20
585.794207
 30
0.0
 11
1359.3091
 21
592.89931
 31
0.0
  0
LINE
  5
402
330
A
100
AcDbEntity
  8
0
  6
Continuous
100
AcDbLine
 10
1359.3091
 20
595.19931
 30
0.0
 11
1359.3091
 21
602.3044119999999
 31
0.0
  0
LINE
  5
403
330
A
100
AcDbEntity
  8
0
  6
Continuous
100
AcDbLine
 10
1364.21657
 20
603.199309
 30
0.0
 11
1372.46657
 21
603.199309
 31
0.0
  0
LINE
  5
404
330
A
100
AcDbEntity
  8
0
  6
Continuous
100
AcDbLine
 10
1372.46657
 20
603.199309
 30
0.0
 11
1374.01656
 21
602.3044119999999
 31
0.0
  0
LINE
  5
405
330
A
100
AcDbEntity
  8
0
  6
Continuous
100
AcDbLine
 10
1374.01656
 20
602.3044119999999
 30
0.0
 11
1374.01656
 21
595.19931
 31
0.0
  0
LINE
  5
406
330
A
100
AcDbEntity
  8
0
  6
Continuous
100
AcDbLine
 10
1374.01656
 20
592.89931
 30
0.0
 11
1374.01656
 21
585.794207
 31
0.0
  0
LINE
  5
407
330
A
100
AcDbEntity
  8
0
  6
Continuous
100
AcDbLine
 10
1374.01656
 20
585.794207
 30
0.0
 11
1372.46657
 21
584.89931
 31
0.0
  0
LINE
  5
408
330
A
100
AcDbEntity
  8
0
  6
Continuous
100
AcDbLine
 10
1372.46657
 20
584.89931
 30
0.0
 11
1364.21657
 21
584.89931
 31
0.0
  0
LINE
  5
409
330
A
100
AcDbEntity
  8
0
  6
Continuous
100
AcDbLine
 10
1364.21657
 20
584.89931
 30
0.0
 11
1355.96657
 21
584.89931
 31
0.0
  0
LINE
  5
40A
330
A
100
AcDbEntity
  8
0
  6
Continuous
100
AcDbLine
 10
1355.96657
 20
584.89931
 30
0.0
 11
1354.41659
 21
585.794207
 31
0.0
  0
LINE
  5
40B
330
A
100
AcDbEntity
  8
0
  6
Continuous
100
AcDbLine
 10
1354.41659
 20
585.794207
 30
0.0
 11
1354.41659
 21
592.89931
 31
0.0
  0
LINE
  5
40C
330
A
100
AcDbEntity
  8
0
  6
Continuous
100
AcDbLine
 10
1354.41659
 20
595.19931
 30
0.0
 11
1354.41659
 21
602.3044119999999
 31
0.0
  0
LINE
  5
40D
330
A
100
AcDbEntity
  8
0
  6
Continuous
100
AcDbLine
 10
1354.41659
 20
602.3044119999999
 30
0.0
 11
1355.96657
 21
603.199309
 31
0.0
  0
LINE
  5
40E
330
A
100
AcDbEntity
  8
0
  6
Continuous
100
AcDbLine
 10
1355.96657
 20
603.199309
 30
0.0
 11
1364.21657
 21
603.199309
 31
0.0
  0
LINE
  5
40F
330
A
100
AcDbEntity
  8
0
  6
Continuous
100
AcDbLine
 10
1369.12404
 20
602.3044119999999
 30
0.0
 11
1369.12404
 21
595.19931
 31
0.0
  0
LINE
  5
410
330
A
100
AcDbEntity
  8
0
  6
Continuous
100
AcDbLine
 10
1369.12404
 20
592.89931
 30
0.0
 11
1369.12404
 21
585.794207
 31
0.0
  0
LINE
  5
411
330
A
100
AcDbEntity
  8
0
  6
Continuous
100
AcDbLine
 10
1427.49999
 20
570.19931
 30
0.0
 11
1427.49999
 21
556.4993099999999
 31
0.0
  0
LINE
  5
412
330
A
100
AcDbEntity
  8
0
  6
Continuous
100
AcDbLine
 10
1427.49999
 20
556.4993099999999
 30
0.0
 11
1449.99999
 21
556.4993099999999
 31
0.0
  0
LINE
  5
413
330
A
100
AcDbEntity
  8
0
  6
Continuous
100
AcDbLine
 10
1449.99999
 20
556.4993099999999
 30
0.0
 11
1449.99999
 21
554.19931
 31
0.0
  0
LINE
  5
414
330
A
100
AcDbEntity
  8
0
  6
Continuous
100
AcDbLine
 10
1392.49999
 20
570.19931
 30
0.0
 11
1427.49999
 21
570.19931
 31
0.0
  0
LINE
  5
415
330
A
100
AcDbEntity
  8
0
  6
Continuous
100
AcDbLine
 10
1425.19999
 20
567.89931
 30
0.0
 11
1404.79999
 21
567.89931
 31
0.0
  0
LINE
  5
416
330
A
100
AcDbEntity
  8
0
  6
Continuous
100
AcDbLine
 10
1404.79999
 20
567.89931
 30
0.0
 11
1404.79999
 21
554.19931
 31
0.0
  0
LINE
  5
417
330
A
100
AcDbEntity
  8
0
  6
Continuous
100
AcDbLine
 10
1402.49999
 20
556.4993099999999
 30
0.0
 11
1379.99999
 21
556.4993099999999
 31
0.0
  0
LINE
  5
418
330
A
100
AcDbEntity
  8
0
  6
Continuous
100
AcDbLine
 10
1379.99999
 20
556.4993099999999
 30
0.0
 11
1379.99999
 21
554.19931
 31
0.0
  0
LINE
  5
419
330
A
100
AcDbEntity
  8
0
  6
Continuous
100
AcDbLine
 10
1402.49999
 20
570.19931
 30
0.0
 11
1402.49999
 21
556.4993099999999
 31
0.0
  0
LINE
  5
41A
330
A
100
AcDbEntity
  8
0
  6
Continuous
100
AcDbLine
 10
1409.2071
 20
565.8993099999999
 30
0.0
 11
1420.79288
 21
565.8993099999999
 31
0.0
  0
LINE
  5
41B
330
A
100
AcDbEntity
  8
0
  6
Continuous
100
AcDbLine
 10
1421.14644
 20
566.7528629999999
 30
0.0
 11
1419.99999
 21
567.89931
 31
0.0
  0
LINE
  5
41C
330
A
100
AcDbEntity
  8
0
  6
Continuous
100
AcDbLine
 10
1425.19999
 20
567.89931
 30
0.0
 11
1425.19999
 21
554.19931
 31
0.0
  0
LINE
  5
41D
330
A
100
AcDbEntity
  8
0
  6
Continuous
100
AcDbLine
 10
1409.99999
 20
567.89931
 30
0.0
 11
1408.85354
 21
566.7528629999999
 31
0.0
  0
LINE
  5
41E
330
A
100
AcDbEntity
  8
0
  6
Continuous
100
AcDbLine
 10
1570.29999
 20
546.1993099999999
 30
0.0
 11
1579.69999
 21
546.1993099999999
 31
0.0
  0
LINE
  5
41F
330
A
100
AcDbEntity
  8
0
  6
Continuous
100
AcDbLine
 10
1579.69999
 20
546.1993099999999
 30
0.0
 11
1579.69999
 21
532.1993099999999
 31
0.0
  0
LINE
  5
420
330
A
100
AcDbEntity
  8
0
  6
Continuous
100
AcDbLine
 10
1579.69999
 20
532.1993099999999
 30
0.0
 11
1570.29999
 21
532.1993099999999
 31
0.0
  0
LINE
  5
421
330
A
100
AcDbEntity
  8
0
  6
Continuous
100
AcDbLine
 10
1570.29999
 20
532.1993099999999
 30
0.0
 11
1570.29999
 21
546.1993099999999
 31
0.0
  0
ARC
  5
422
330
A
100
AcDbEntity
  8
0
  6
Continuous
100
AcDbCircle
 10
1371.5703
 20
588.613544
 30
0.0
 40
3.732671999999999
100
AcDbArc
 50
229.05273
 51
310.94725
  0
ARC
  5
423
330
A
100
AcDbEntity
  8
0
  6
Continuous
100
AcDbCircle
 10
1356.86284
 20
588.613544
 30
0.0
 40
3.732671999999999
100
AcDbArc
 50
229.05273
 51
310.94725
  0
ARC
  5
424
330
A
100
AcDbEntity
  8
0
  6
Continuous
100
AcDbCircle
 10
1364.21657
 20
598.802753
 30
0.0
 40
13.903436
100
AcDbArc
 50
249.33102
 51
290.66896
  0
ARC
  5
425
330
A
100
AcDbEntity
  8
0
  6
Continuous
100
AcDbCircle
 10
1371.5703
 20
599.485075
 30
0.0
 40
3.732671999999999
100
AcDbArc
 50
49.05275
 51
130.94726
  0
ARC
  5
426
330
A
100
AcDbEntity
  8
0
  6
Continuous
100
AcDbCircle
 10
1356.86284
 20
599.485075
 30
0.0
 40
3.732671999999999
100
AcDbArc
 50
49.05275
 51
130.94726
  0
ARC
  5
427
330
A
100
AcDbEntity
  8
0
  6
Continuous
100
AcDbCircle
 10
1364.21657
 20
589.295866
 30
0.0
 40
13.903436
100
AcDbArc
 50
69.33103199999999
 51
110.66897
  0
ARC
  5
428
330
A
100
AcDbEntity
  8
0
  6
Continuous
100
AcDbCircle
 10
1414.99999
 20
561.2493099999999
 30
0.0
 40
13.25
100
AcDbArc
 50
58.10920799999999
 51
121.89079
  0
ARC
  5
429
330
A
100
AcDbEntity
  8
0
  6
Continuous
100
AcDbCircle
 10
1409.2071
 20
566.3993099999999
 30
0.0
 40
0.5
100
AcDbArc
 50
135.0
 51
270.0
  0
ARC
  5
42A
330
A
100
AcDbEntity
  8
0
  6
Continuous
100
AcDbCircle
 10
1420.79288
 20
566.3993099999999
 30
0.0
 40
0.5
100
AcDbArc
 50
270.0
 51
45.0
  0
LINE
  5
42B
330
A
100
AcDbEntity
  8
0
  6
Continuous
100
AcDbLine
 10
1412.49999
 20
515.7993099999999
 30
0.0
 11
1406.59999
 21
515.7993099999999
 31
0.0
  0
LINE
  5
42C
330
A
100
AcDbEntity
  8
0
  6
Continuous
100
AcDbLine
 10
1404.99999
 20
522.5993099999999
 30
0.0
 11
1404.99999
 21
514.1993099999999
 31
0.0
  0
LINE
  5
42D
330
A
100
AcDbEntity
  8
0
  6
Continuous
100
AcDbLine
 10
1412.49999
 20
514.1993099999999
 30
0.0
 11
1412.49999
 21
519.6993099999999
 31
0.0
  0
LINE
  5
42E
330
A
100
AcDbEntity
  8
0
  6
Continuous
100
AcDbLine
 10
1454.99999
 20
524.19931
 30
0.0
 11
1454.99999
 21
522.5993099999999
 31
0.0
  0
LINE
  5
42F
330
A
100
AcDbEntity
  8
0
  6
Continuous
100
AcDbLine
 10
1454.99999
 20
522.5993099999999
 30
0.0
 11
1444.99999
 21
522.5993099999999
 31
0.0
  0
LINE
  5
430
330
A
100
AcDbEntity
  8
0
  6
Continuous
100
AcDbLine
 10
1444.99999
 20
522.5993099999999
 30
0.0
 11
1444.99999
 21
514.1993099999999
 31
0.0
  0
LINE
  5
431
330
A
100
AcDbEntity
  8
0
  6
Continuous
100
AcDbLine
 10
1443.39999
 20
515.7993099999999
 30
0.0
 11
1437.49999
 21
515.7993099999999
 31
0.0
  0
LINE
  5
432
330
A
100
AcDbEntity
  8
0
  6
Continuous
100
AcDbLine
 10
1437.49999
 20
514.1993099999999
 30
0.0
 11
1437.49999
 21
519.6993099999999
 31
0.0
  0
LINE
  5
433
330
A
100
AcDbEntity
  8
0
  6
Continuous
100
AcDbLine
 10
1404.99999
 20
522.5993099999999
 30
0.0
 11
1394.99999
 21
522.5993099999999
 31
0.0
  0
LINE
  5
434
330
A
100
AcDbEntity
  8
0
  6
Continuous
100
AcDbLine
 10
1394.99999
 20
522.5993099999999
 30
0.0
 11
1394.99999
 21
524.19931
 31
0.0
  0
LINE
  5
435
330
A
100
AcDbEntity
  8
0
  6
Continuous
100
AcDbLine
 10
1420.49999
 20
527.6993099999999
 30
0.0
 11
1429.49999
 21
527.6993099999999
 31
0.0
  0
LINE
  5
436
330
A
100
AcDbEntity
  8
0
  6
Continuous
100
AcDbLine
 10
1588.49999
 20
503.4493099999999
 30
0.0
 11
1588.49999
 21
505.6993099999999
 31
0.0
  0
LINE
  5
437
330
A
100
AcDbEntity
  8
0
  6
Continuous
100
AcDbLine
 10
1588.49999
 20
497.6993099999999
 30
0.0
 11
1588.49999
 21
499.9493099999999
 31
0.0
  0
ARC
  5
438
330
A
100
AcDbEntity
  8
0
  6
Continuous
100
AcDbCircle
 10
1420.49999
 20
519.6993099999999
 30
0.0
 40
8.0
100
AcDbArc
 50
90.0
 51
180.0
  0
ARC
  5
439
330
A
100
AcDbEntity
  8
0
  6
Continuous
100
AcDbCircle
 10
1429.49999
 20
519.6993099999999
 30
0.0
 40
8.0
100
AcDbArc
 50
0.0
 51
90.0
  0
LINE
  5
43A
330
A
100
AcDbEntity
  8
0
  6
Continuous
100
AcDbLine
 10
1429.51052
 20
520.5576129999999
 30
0.0
 11
1437.40393
 21
517.684644
 31
0.0
  0
LINE
  5
43B
330
A
100
AcDbEntity
  8
0
  6
Continuous
100
AcDbLine
 10
1412.59605
 20
517.684644
 30
0.0
 11
1420.48947
 21
520.5576129999999
 31
0.0
  0
LINE
  5
43C
330
A
100
AcDbEntity
  8
0
  6
Continuous
100
AcDbLine
 10
1428.99999
 20
528.8993099999999
 30
0.0
 11
1428.99999
 21
526.6714459999999
 31
0.0
  0
LINE
  5
43D
330
A
100
AcDbEntity
  8
0
  6
Continuous
100
AcDbLine
 10
1429.24263
 20
526.44195
 30
0.0
 11
1428.3941
 21
525.593423
 31
0.0
  0
LINE
  5
43E
330
A
100
AcDbEntity
  8
0
  6
Continuous
100
AcDbLine
 10
1428.99999
 20
528.8993099999999
 30
0.0
 11
1420.99999
 21
528.8993099999999
 31
0.0
  0
LINE
  5
43F
330
A
100
AcDbEntity
  8
0
  6
Continuous
100
AcDbLine
 10
1420.99999
 20
528.8993099999999
 30
0.0
 11
1420.99999
 21
526.6714459999999
 31
0.0
  0
LINE
  5
440
330
A
100
AcDbEntity
  8
0
  6
Continuous
100
AcDbLine
 10
1420.75735
 20
526.44195
 30
0.0
 11
1421.60588
 21
525.5934219999999
 31
0.0
  0
ARC
  5
441
330
A
100
AcDbEntity
  8
0
  6
Continuous
100
AcDbCircle
 10
1424.99999
 20
522.1993099999999
 30
0.0
 40
4.799999999999999
100
AcDbArc
 50
135.0
 51
45.00000599999999
  0
ARC
  5
442
330
A
100
AcDbEntity
  8
0
  6
Continuous
100
AcDbCircle
 10
1424.99999
 20
522.1993099999999
 30
0.0
 40
6.0
100
AcDbArc
 50
340.0
 51
48.189685
  0
ARC
  5
443
330
A
100
AcDbEntity
  8
0
  6
Continuous
100
AcDbCircle
 10
1424.99999
 20
522.1993099999999
 30
0.0
 40
6.0
100
AcDbArc
 50
131.81031
 51
199.99999
  0
CIRCLE
  5
444
330
A
100
AcDbEntity
  8
0
  6
Continuous
100
AcDbCircle
 10
1424.99999
 20
522.1993099999999
 30
0.0
 40
2.25
  0
ARC
  5
445
330
A
100
AcDbEntity
  8
0
  6
Continuous
100
AcDbCircle
 10
1424.99999
 20
522.1993099999999
 30
0.0
 40
13.2
100
AcDbArc
 50
199.99999
 51
339.99999
  0
ARC
  5
446
330
A
100
AcDbEntity
  8
0
  6
Continuous
100
AcDbCircle
 10
1424.99999
 20
522.1993099999999
 30
0.0
 40
12.0
100
AcDbArc
 50
199.99999
 51
340.0
  0
ARC
  5
447
330
A
100
AcDbEntity
  8
0
  6
Continuous
100
AcDbCircle
 10
1424.99999
 20
522.1993099999999
 30
0.0
 40
6.0
100
AcDbArc
 50
199.99999
 51
340.0
  0
LINE
  5
448
330
A
100
AcDbEntity
  8
0
  6
DIVIDE
100
AcDbLine
 10
1587.43999
 20
482.699319
 30
0.0
 11
1590.48376
 21
458.9535989999999
 31
0.0
  0
LINE
  5
449
330
A
100
AcDbEntity
  8
0
  6
DIVIDE
100
AcDbLine
 10
1577.99999
 20
482.699319
 30
0.0
 11
1587.43999
 21
482.699319
 31
0.0
  0
LINE
  5
44A
330
A
100
AcDbEntity
  8
0
  6
DIVIDE
100
AcDbLine
 10
1577.49999
 20
483.199319
 30
0.0
 11
1577.49999
 21
495.19931
 31
0.0
  0
ARC
  5
44B
330
A
100
AcDbEntity
  8
0
  6
DIVIDE
100
AcDbCircle
 10
1577.99999
 20
483.199319
 30
0.0
 40
0.5
100
AcDbArc
 50
180.0
 51
270.0
  0
ARC
  5
44C
330
A
100
AcDbEntity
  8
0
  6
DIVIDE
100
AcDbCircle
 10
1588.49999
 20
458.699319
 30
0.0
 40
2.0
100
AcDbArc
 50
270.0
 51
7.304446000000001
  0
LINE
  5
44D
330
A
100
AcDbEntity
  8
0
  6
DASHDOT
100
AcDbLine
 10
1292.0081
 20
570.350599
 30
0.0
 11
1294.56148
 21
574.7731869999999
 31
0.0
  0
ARC
  5
44E
330
A
100
AcDbEntity
  8
0
  6
DASHDOT
100
AcDbCircle
 10
1289.75643
 20
571.650599
 30
0.0
 40
2.6
100
AcDbArc
 50
150.0
 51
330.0
  0
LINE
  5
44F
330
A
100
AcDbEntity
  8
0
  6
DASHDOT
100
AcDbLine
 10
1287.50477
 20
572.9505989999999
 30
0.0
 11
1294.90477
 21
585.767775
 31
0.0
  0
ARC
  5
450
330
A
100
AcDbEntity
  8
0
  6
DASHDOT
100
AcDbCircle
 10
1297.15643
 20
584.4677749999999
 30
0.0
 40
2.6
100
AcDbArc
 50
60.0
 51
150.0
  0
LINE
  5
451
330
A
100
AcDbEntity
  8
0
  6
DASHDOT
100
AcDbLine
 10
1298.45643
 20
586.7194409999999
 30
0.0
 11
1419.7
 21
516.719433
 31
0.0
  0
LINE
  5
452
330
A
100
AcDbEntity
  8
0
  6
DASHDOT
100
AcDbLine
 10
1430.29998
 20
516.719433
 30
0.0
 11
1551.54355
 21
586.7194409999999
 31
0.0
  0
LINE
  5
453
330
A
100
AcDbEntity
  8
0
  6
DASHDOT
100
AcDbLine
 10
1424.99999
 20
562.7161749999999
 30
0.0
 11
1424.99999
 21
485.0710489999999
 31
0.0
  0
LINE
  5
454
330
A
100
AcDbEntity
  8
0
  6
DASHDOT
100
AcDbLine
 10
1444.54684
 20
539.1993099999999
 30
0.0
 11
1430.37586
 21
539.1993099999999
 31
0.0
  0
LINE
  5
455
330
A
100
AcDbEntity
  8
0
  6
DASHDOT
100
AcDbLine
 10
1437.49999
 20
532.1993099999999
 30
0.0
 11
1437.49999
 21
546.1993099999999
 31
0.0
  0
LINE
  5
456
330
A
100
AcDbEntity
  8
0
  6
DASHDOT
100
AcDbLine
 10
1419.54684
 20
539.1993099999999
 30
0.0
 11
1405.37586
 21
539.1993099999999
 31
0.0
  0
LINE
  5
457
330
A
100
AcDbEntity
  8
0
  6
DASHDOT
100
AcDbLine
 10
1412.49999
 20
546.1993099999999
 30
0.0
 11
1412.49999
 21
532.1993099999999
 31
0.0
  0
LINE
  5
458
330
A
100
AcDbEntity
  8
0
  6
DASHDOT
100
AcDbLine
 10
1414.99999
 20
552.4993099999999
 30
0.0
 11
1414.99999
 21
584.7087299999999
 31
0.0
  0
LINE
  5
459
330
A
100
AcDbEntity
  8
0
  6
DASHDOT
100
AcDbLine
 10
1439.99999
 20
543.755624
 30
0.0
 11
1439.99999
 21
562.719278
 31
0.0
  0
LINE
  5
45A
330
A
100
AcDbEntity
  8
0
  6
DASHDOT
100
AcDbLine
 10
1389.99999
 20
543.755624
 30
0.0
 11
1389.99999
 21
562.719278
 31
0.0
  0
ARC
  5
45B
330
A
100
AcDbEntity
  8
0
  6
DASHDOT
100
AcDbCircle
 10
1552.84355
 20
584.4677749999999
 30
0.0
 40
2.6
100
AcDbArc
 50
30.0
 51
120.0
  0
LINE
  5
45C
330
A
100
AcDbEntity
  8
0
  6
DASHDOT
100
AcDbLine
 10
1555.09521
 20
585.767775
 30
0.0
 11
1562.49521
 21
572.9505989999999
 31
0.0
  0
ARC
  5
45D
330
A
100
AcDbEntity
  8
0
  6
DASHDOT
100
AcDbCircle
 10
1560.24355
 20
571.650599
 30
0.0
 40
2.6
100
AcDbArc
 50
210.0
 51
30.0
  0
LINE
  5
45E
330
A
100
AcDbEntity
  8
0
  6
DASHDOT
100
AcDbLine
 10
1557.99188
 20
570.350599
 30
0.0
 11
1555.4385
 21
574.7731869999999
 31
0.0
  0
LINE
  5
45F
330
A
100
AcDbEntity
  8
0
  6
DASHDOT
100
AcDbLine
 10
1564.99999
 20
563.020145
 30
0.0
 11
1564.99999
 21
545.626936
 31
0.0
  0
LINE
  5
460
330
A
100
AcDbEntity
  8
0
  6
DASHDOT
100
AcDbLine
 10
1524.99999
 20
545.626936
 30
0.0
 11
1524.99999
 21
563.020145
 31
0.0
  0
LINE
  5
461
330
A
100
AcDbEntity
  8
0
  6
DASHDOT
100
AcDbLine
 10
1554.99433
 20
539.1993099999999
 30
0.0
 11
1595.77337
 21
539.1993099999999
 31
0.0
  0
LINE
  5
462
330
A
100
AcDbEntity
  8
0
  6
DASHDOT
100
AcDbLine
 10
1524.99999
 20
501.762794
 30
0.0
 11
1524.99999
 21
523.020145
 31
0.0
  0
LINE
  5
463
330
A
100
AcDbEntity
  8
0
  6
DASHDOT
100
AcDbLine
 10
1585.76131
 20
489.199319
 30
0.0
 11
1568.14886
 21
489.199319
 31
0.0
  0
LINE
  5
464
330
A
100
AcDbEntity
  8
0
  6
DASHDOT
100
AcDbLine
 10
1574.99999
 20
501.762794
 30
0.0
 11
1574.99999
 21
563.020145
 31
0.0
  0
LINE
  5
465
330
A
100
AcDbEntity
  8
0
  6
Continuous
100
AcDbLine
 10
1596.28256
 20
504.3350379999999
 30
0.0
 11
1599.21586
 21
506.360737
 31
0.0
  0
LINE
  5
466
330
A
100
AcDbEntity
  8
0
  6
Continuous
100
AcDbLine
 10
1599.8791
 20
505.623311
 30
0.0
 11
1596.49623
 21
501.689317
 31
0.0
  0
ARC
  5
467
330
A
100
AcDbEntity
  8
0
  6
Continuous
100
AcDbCircle
 10
1592.70513
 20
504.9493099999999
 30
0.0
 40
5.0
100
AcDbArc
 50
270.0
 51
319.30754
  0
ARC
  5
468
330
A
100
AcDbEntity
  8
0
  6
Continuous
100
AcDbCircle
 10
1593.4413
 20
508.4493099999999
 30
0.0
 40
5.0
100
AcDbArc
 50
270.0
 51
304.62845
  0
ARC
  5
469
330
A
100
AcDbEntity
  8
0
  6
Continuous
100
AcDbCircle
 10
1599.49999
 20
505.94931
 30
0.0
 40
0.5
100
AcDbArc
 50
319.30757
 51
124.62845
  0
LINE
  5
46A
330
A
100
AcDbEntity
  8
0
  6
Continuous
100
AcDbLine
 10
1588.49999
 20
499.9493099999999
 30
0.0
 11
1592.70513
 21
499.9493099999999
 31
0.0
  0
LINE
  5
46B
330
A
100
AcDbEntity
  8
0
  6
Continuous
100
AcDbLine
 10
1593.4413
 20
503.4493099999999
 30
0.0
 11
1588.49999
 21
503.4493099999999
 31
0.0
  0
LINE
  5
46C
330
A
100
AcDbEntity
  8
0
  6
Continuous
100
AcDbLine
 10
1584.99999
 20
505.6993099999999
 30
0.0
 11
1584.99999
 21
497.6993099999999
 31
0.0
  0
LINE
  5
46D
330
A
100
AcDbEntity
  8
0
  6
Continuous
100
AcDbLine
 10
1562.99999
 20
514.1993099999999
 30
0.0
 11
517.0
 21
514.1993099999999
 31
0.0
  0
LINE
  5
46E
330
A
100
AcDbEntity
  8
0
  6
Continuous
100
AcDbLine
 10
520.0
 20
507.1993099999999
 30
0.0
 11
1559.99999
 21
507.1993099999999
 31
0.0
  0
LINE
  5
46F
330
A
100
AcDbEntity
  8
0
  6
DIVIDE
100
AcDbLine
 10
491.5
 20
456.699319
 30
0.0
 11
1588.49999
 21
456.699319
 31
0.0
  0
LINE
  5
470
330
A
100
AcDbEntity
  8
0
  6
Continuous
100
AcDbLine
 10
826.1429372093626
 20
341.317048
 30
0.0
 11
1253.857052790637
 21
341.317048
 31
0.0
  0
LINE
  5
471
330
A
100
AcDbEntity
  8
0
  6
Continuous
100
AcDbLine
 10
826.1429372093626
 20
309.817048
 30
0.0
 11
1253.857052790637
 21
309.817048
 31
0.0
  0
LINE
  5
472
330
A
100
AcDbEntity
  8
0
  6
Continuous
100
AcDbLine
 10
826.1429372093626
 20
341.317048
 30
0.0
 11
826.1429372093626
 21
309.817048
 31
0.0
  0
LINE
  5
473
330
A
100
AcDbEntity
  8
0
  6
Continuous
100
AcDbLine
 10
1253.857052790637
 20
341.317048
 30
0.0
 11
1253.857052790637
 21
309.817048
 31
0.0
  0
LINE
  5
474
330
A
100
AcDbEntity
  8
0
  6
Continuous
100
AcDbLine
 10
711.7834199999999
 20
572.9374609999999
 30
0.0
 11
711.7834199999999
 21
584.89931
 31
0.0
  0
LINE
  5
475
330
A
100
AcDbEntity
  8
0
  6
Continuous
100
AcDbLine
 10
710.78342
 20
573.9374609999999
 30
0.0
 11
720.7834199999999
 21
573.9374609999999
 31
0.0
  0
LINE
  5
476
330
A
100
AcDbEntity
  8
0
  6
Continuous
100
AcDbLine
 10
719.7834199999999
 20
584.89931
 30
0.0
 11
719.7834199999999
 21
572.9374609999999
 31
0.0
  0
LINE
  5
477
330
A
100
AcDbEntity
  8
0
  6
Continuous
100
AcDbLine
 10
1369.21657
 20
573.9374609999999
 30
0.0
 11
1359.21657
 21
573.9374609999999
 31
0.0
  0
LINE
  5
478
330
A
100
AcDbEntity
  8
0
  6
Continuous
100
AcDbLine
 10
1368.21657
 20
572.9374609999999
 30
0.0
 11
1368.21657
 21
584.89931
 31
0.0
  0
LINE
  5
479
330
A
100
AcDbEntity
  8
0
  6
Continuous
100
AcDbLine
 10
1360.21657
 20
572.9374609999999
 30
0.0
 11
1360.21657
 21
584.89931
 31
0.0
  0
LINE
  5
47A
330
A
100
AcDbEntity
  8
0
  6
Continuous
100
AcDbLine
 10
710.78342
 20
732.4302499999999
 30
0.0
 11
710.78342
 21
603.199309
 31
0.0
  0
LINE
  5
47B
330
A
100
AcDbEntity
  8
0
  6
Continuous
100
AcDbLine
 10
720.7834199999999
 20
603.199309
 30
0.0
 11
720.7834199999999
 21
732.4302499999999
 31
0.0
  0
LINE
  5
47C
330
A
100
AcDbEntity
  8
0
  6
Continuous
100
AcDbLine
 10
711.7834199999999
 20
603.199309
 30
0.0
 11
711.7834199999999
 21
732.4302499999999
 31
0.0
  0
LINE
  5
47D
330
A
100
AcDbEntity
  8
0
  6
Continuous
100
AcDbLine
 10
719.7834199999999
 20
732.4302499999999
 30
0.0
 11
719.7834199999999
 21
603.199309
 31
0.0
  0
LINE
  5
47E
330
A
100
AcDbEntity
  8
0
  6
Continuous
100
AcDbLine
 10
1359.21657
 20
603.199309
 30
0.0
 11
1359.21657
 21
732.4302499999999
 31
0.0
  0
LINE
  5
47F
330
A
100
AcDbEntity
  8
0
  6
Continuous
100
AcDbLine
 10
1369.21657
 20
732.4302499999999
 30
0.0
 11
1369.21657
 21
603.199309
 31
0.0
  0
LINE
  5
480
330
A
100
AcDbEntity
  8
0
  6
Continuous
100
AcDbLine
 10
1360.21657
 20
732.4302499999999
 30
0.0
 11
1360.21657
 21
603.199309
 31
0.0
  0
LINE
  5
481
330
A
100
AcDbEntity
  8
0
  6
Continuous
100
AcDbLine
 10
1368.21657
 20
603.199309
 30
0.0
 11
1368.21657
 21
732.4302499999999
 31
0.0
  0
LINE
  5
482
330
A
100
AcDbEntity
  8
0
  6
DASHDOT
100
AcDbLine
 10
715.7834199999999
 20
737.53025
 30
0.0
 11
715.7834199999999
 21
562.058309
 31
0.0
  0
LINE
  5
483
330
A
100
AcDbEntity
  8
0
  6
DASHDOT
100
AcDbLine
 10
1364.21657
 20
562.058309
 30
0.0
 11
1364.21657
 21
737.53025
 31
0.0
  0
TEXT
  5
484
330
A
100
AcDbEntity
  8
0
  6
Continuous
100
AcDbText
 10
511.5884754653616
 20
697.3033623183204
 30
0.0
 40
15.0
  1
（建築工事）
100
AcDbText
  0
LINE
  5
485
330
A
100
AcDbEntity
  8
0
  6
DOT
100
AcDbLine
 10
642.4999999999999
 20
515.7993099999999
 30
0.0
 11
667.4999999999999
 21
515.7993099999999
 31
0.0
  0
LINE
  5
486
330
A
100
AcDbEntity
  8
0
  6
DOT
100
AcDbLine
 10
1437.49999
 20
515.7993099999999
 30
0.0
 11
1412.49999
 21
515.7993099999999
 31
0.0
  0
ARC
  5
487
330
A
100
AcDbEntity
  8
0
  6
DIVIDE
100
AcDbCircle
 10
502.0
 20
483.199319
 30
0.0
 40
0.5
100
AcDbArc
 50
270.0
 51
0.0
  0
LINE
  5
488
330
A
100
AcDbEntity
  8
0
  6
DIVIDE
100
AcDbLine
 10
491.5
 20
458.699319
 30
0.0
 11
489.5
 21
458.699319
 31
0.0
  0
LINE
  5
489
330
A
100
AcDbEntity
  8
0
  6
DIVIDE
100
AcDbLine
 10
1588.49999
 20
458.699319
 30
0.0
 11
1590.49999
 21
458.699319
 31
0.0
  0
LINE
  5
48A
330
A
100
AcDbEntity
  8
0
  6
Continuous
100
AcDbLine
 10
1833.59523
 20
926.6303009999999
 30
0.0
 11
1825.29523
 21
926.6303009999999
 31
0.0
  0
LINE
  5
48B
330
A
100
AcDbEntity
  8
0
  6
Continuous
100
AcDbLine
 10
1825.29523
 20
921.2303009999999
 30
0.0
 11
1833.59523
 21
921.2303009999999
 31
0.0
  0
LINE
  5
48C
330
A
100
AcDbEntity
  8
0
  6
Continuous
100
AcDbLine
 10
1825.37137
 20
923.033531
 30
0.0
 11
1772.65124
 21
918.5572909999999
 31
0.0
  0
LINE
  5
48D
330
A
100
AcDbEntity
  8
0
  6
Continuous
100
AcDbLine
 10
1772.49896
 20
920.3508410000001
 30
0.0
 11
1825.21909
 21
924.8270709999999
 31
0.0
  0
LINE
  5
48E
330
A
100
AcDbEntity
  8
0
  6
Continuous
100
AcDbLine
 10
1825.29523
 20
924.8303009999998
 30
0.0
 11
1833.59523
 21
924.8303009999998
 31
0.0
  0
LINE
  5
48F
330
A
100
AcDbEntity
  8
0
  6
Continuous
100
AcDbLine
 10
1833.59523
 20
923.030301
 30
0.0
 11
1825.29523
 21
923.030301
 31
0.0
  0
LINE
  5
490
330
A
100
AcDbEntity
  8
0
  6
Continuous
100
AcDbLine
 10
1825.21909
 20
923.033531
 30
0.0
 11
1772.49896
 21
927.5097609999999
 31
0.0
  0
LINE
  5
491
330
A
100
AcDbEntity
  8
0
  6
Continuous
100
AcDbLine
 10
1772.65124
 20
929.3033109999999
 30
0.0
 11
1825.37137
 21
924.8270709999999
 31
0.0
  0
CIRCLE
  5
492
330
A
100
AcDbEntity
  8
0
  6
Continuous
100
AcDbCircle
 10
1846.49523
 20
923.930301
 30
0.0
 40
0.9
  0
CIRCLE
  5
493
330
A
100
AcDbEntity
  8
0
  6
Continuous
100
AcDbCircle
 10
1846.49523
 20
922.1303009999999
 30
0.0
 40
0.9
  0
CIRCLE
  5
494
330
A
100
AcDbEntity
  8
0
  6
Continuous
100
AcDbCircle
 10
1846.49523
 20
925.7303009999999
 30
0.0
 40
0.9
  0
CIRCLE
  5
495
330
A
100
AcDbEntity
  8
0
  6
Continuous
100
AcDbCircle
 10
1825.29523
 20
923.930301
 30
0.0
 40
0.9
  0
CIRCLE
  5
496
330
A
100
AcDbEntity
  8
0
  6
Continuous
100
AcDbCircle
 10
1825.29523
 20
922.1303009999999
 30
0.0
 40
0.9
  0
CIRCLE
  5
497
330
A
100
AcDbEntity
  8
0
  6
Continuous
100
AcDbCircle
 10
1825.29523
 20
925.7303009999999
 30
0.0
 40
0.9
  0
CIRCLE
  5
498
330
A
100
AcDbEntity
  8
0
  6
Continuous
100
AcDbCircle
 10
1772.5751
 20
928.406541
 30
0.0
 40
0.9
  0
CIRCLE
  5
499
330
A
100
AcDbEntity
  8
0
  6
Continuous
100
AcDbCircle
 10
1772.5751
 20
919.4540609999998
 30
0.0
 40
0.9
  0
LINE
  5
49A
330
A
100
AcDbEntity
  8
0
  6
Continuous
100
AcDbLine
 10
1837.59523
 20
931.4303009999999
 30
0.0
 11
1836.39523
 21
931.4303009999999
 31
0.0
  0
LINE
  5
49B
330
A
100
AcDbEntity
  8
0
  6
Continuous
100
AcDbLine
 10
1836.39523
 20
931.4303009999999
 30
0.0
 11
1836.39523
 21
917.6303009999999
 31
0.0
  0
LINE
  5
49C
330
A
100
AcDbEntity
  8
0
  6
Continuous
100
AcDbLine
 10
1836.39523
 20
917.6303009999999
 30
0.0
 11
1812.59523
 21
917.6303009999999
 31
0.0
  0
LINE
  5
49D
330
A
100
AcDbEntity
  8
0
  6
Continuous
100
AcDbLine
 10
1812.59523
 20
917.6303009999999
 30
0.0
 11
1812.59523
 21
916.4303009999999
 31
0.0
  0
LINE
  5
49E
330
A
100
AcDbEntity
  8
0
  6
Continuous
100
AcDbLine
 10
1812.59523
 20
916.4303009999999
 30
0.0
 11
1837.59523
 21
916.4303009999999
 31
0.0
  0
LINE
  5
49F
330
A
100
AcDbEntity
  8
0
  6
Continuous
100
AcDbLine
 10
1828.59523
 20
916.4303009999999
 30
0.0
 11
1828.59523
 21
917.6303009999999
 31
0.0
  0
LINE
  5
4A0
330
A
100
AcDbEntity
  8
0
  6
Continuous
100
AcDbLine
 10
1854.59523
 20
916.4303009999999
 30
0.0
 11
1854.59523
 21
913.430301
 31
0.0
  0
LINE
  5
4A1
330
A
100
AcDbEntity
  8
0
  6
Continuous
100
AcDbLine
 10
1854.59523
 20
913.430301
 30
0.0
 11
1847.59523
 21
913.430301
 31
0.0
  0
LINE
  5
4A2
330
A
100
AcDbEntity
  8
0
  6
Continuous
100
AcDbLine
 10
1847.59523
 20
904.930301
 30
0.0
 11
1849.59523
 21
904.930301
 31
0.0
  0
LINE
  5
4A3
330
A
100
AcDbEntity
  8
0
  6
Continuous
100
AcDbLine
 10
1849.59523
 20
904.930301
 30
0.0
 11
1849.59523
 21
911.9303009999999
 31
0.0
  0
LINE
  5
4A4
330
A
100
AcDbEntity
  8
0
  6
Continuous
100
AcDbLine
 10
1849.59523
 20
911.9303009999999
 30
0.0
 11
1854.59523
 21
911.9303009999999
 31
0.0
  0
LINE
  5
4A5
330
A
100
AcDbEntity
  8
0
  6
Continuous
100
AcDbLine
 10
1854.59523
 20
911.9303009999999
 30
0.0
 11
1854.59523
 21
890.930301
 31
0.0
  0
LINE
  5
4A6
330
A
100
AcDbEntity
  8
0
  6
Continuous
100
AcDbLine
 10
1854.59523
 20
890.930301
 30
0.0
 11
1849.59523
 21
890.930301
 31
0.0
  0
LINE
  5
4A7
330
A
100
AcDbEntity
  8
0
  6
Continuous
100
AcDbLine
 10
1849.59523
 20
890.930301
 30
0.0
 11
1849.59523
 21
897.930301
 31
0.0
  0
LINE
  5
4A8
330
A
100
AcDbEntity
  8
0
  6
Continuous
100
AcDbLine
 10
1849.59523
 20
897.930301
 30
0.0
 11
1847.59523
 21
897.930301
 31
0.0
  0
LINE
  5
4A9
330
A
100
AcDbEntity
  8
0
  6
Continuous
100
AcDbLine
 10
1847.59523
 20
889.4303009999999
 30
0.0
 11
1854.59523
 21
889.4303009999999
 31
0.0
  0
LINE
  5
4AA
330
A
100
AcDbEntity
  8
0
  6
Continuous
100
AcDbLine
 10
1854.59523
 20
889.4303009999999
 30
0.0
 11
1854.59523
 21
886.430301
 31
0.0
  0
LINE
  5
4AB
330
A
100
AcDbEntity
  8
0
  6
Continuous
100
AcDbLine
 10
1854.59523
 20
886.430301
 30
0.0
 11
1858.09523
 21
886.430301
 31
0.0
  0
LINE
  5
4AC
330
A
100
AcDbEntity
  8
0
  6
Continuous
100
AcDbLine
 10
1858.09523
 20
886.430301
 30
0.0
 11
1858.09523
 21
887.9303009999999
 31
0.0
  0
LINE
  5
4AD
330
A
100
AcDbEntity
  8
0
  6
Continuous
100
AcDbLine
 10
1856.09523
 20
887.9303009999999
 30
0.0
 11
1856.09523
 21
892.0303009999999
 31
0.0
  0
LINE
  5
4AE
330
A
100
AcDbEntity
  8
0
  6
Continuous
100
AcDbLine
 10
1856.09523
 20
892.0303009999999
 30
0.0
 11
1864.09523
 21
892.0303009999999
 31
0.0
  0
LINE
  5
4AF
330
A
100
AcDbEntity
  8
0
  6
Continuous
100
AcDbLine
 10
1864.09523
 20
892.0303009999999
 30
0.0
 11
1864.09523
 21
887.9303009999999
 31
0.0
  0
LINE
  5
4B0
330
A
100
AcDbEntity
  8
0
  6
Continuous
100
AcDbLine
 10
1862.09523
 20
887.9303009999999
 30
0.0
 11
1862.09523
 21
886.430301
 31
0.0
  0
LINE
  5
4B1
330
A
100
AcDbEntity
  8
0
  6
Continuous
100
AcDbLine
 10
1862.09523
 20
886.430301
 30
0.0
 11
1865.59523
 21
886.430301
 31
0.0
  0
LINE
  5
4B2
330
A
100
AcDbEntity
  8
0
  6
Continuous
100
AcDbLine
 10
1865.59523
 20
886.430301
 30
0.0
 11
1865.59523
 21
898.4303009999999
 31
0.0
  0
LINE
  5
4B3
330
A
100
AcDbEntity
  8
0
  6
Continuous
100
AcDbLine
 10
1878.59523
 20
899.4303009999999
 30
0.0
 11
1866.59523
 21
899.4303009999999
 31
0.0
  0
LINE
  5
4B4
330
A
100
AcDbEntity
  8
0
  6
Continuous
100
AcDbLine
 10
1902.90452
 20
886.4424710000001
 30
0.0
 11
1879.59523
 21
889.4303009999999
 31
0.0
  0
LINE
  5
4B5
330
A
100
AcDbEntity
  8
0
  6
Continuous
100
AcDbLine
 10
1879.59523
 20
889.4303009999999
 30
0.0
 11
1879.59523
 21
898.4303009999999
 31
0.0
  0
LINE
  5
4B6
330
A
100
AcDbEntity
  8
0
  6
Continuous
100
AcDbLine
 10
1879.29523
 20
905.4303009999999
 30
0.0
 11
1879.29523
 21
910.110141
 31
0.0
  0
LINE
  5
4B7
330
A
100
AcDbEntity
  8
0
  6
Continuous
100
AcDbLine
 10
1882.57442
 20
910.572441
 30
0.0
 11
1904.15495
 21
888.9919009999999
 31
0.0
  0
LINE
  5
4B8
330
A
100
AcDbEntity
  8
0
  6
Continuous
100
AcDbLine
 10
1899.63382
 20
888.5756310000001
 30
0.0
 11
1882.16809
 21
890.8144210000001
 31
0.0
  0
LINE
  5
4B9
330
A
100
AcDbEntity
  8
0
  6
Continuous
100
AcDbLine
 10
1881.29523
 20
891.8063009999999
 30
0.0
 11
1881.29523
 21
907.033241
 31
0.0
  0
LINE
  5
4BA
330
A
100
AcDbEntity
  8
0
  6
Continuous
100
AcDbLine
 10
1883.00234
 20
907.7403509999999
 30
0.0
 11
1900.46807
 21
890.2746210000001
 31
0.0
  0
LINE
  5
4BB
330
A
100
AcDbEntity
  8
0
  6
Continuous
100
AcDbLine
 10
1857.59523
 20
895.030301
 30
0.0
 11
1857.59523
 21
913.730301
 31
0.0
  0
LINE
  5
4BC
330
A
100
AcDbEntity
  8
0
  6
Continuous
100
AcDbLine
 10
1858.59523
 20
914.7303009999999
 30
0.0
 11
1868.43228
 21
914.7303009999999
 31
0.0
  0
LINE
  5
4BD
330
A
100
AcDbEntity
  8
0
  6
Continuous
100
AcDbLine
 10
1868.43228
 20
916.4303009999999
 30
0.0
 11
1854.59523
 21
916.4303009999999
 31
0.0
  0
LINE
  5
4BE
330
A
100
AcDbEntity
  8
0
  6
Continuous
100
AcDbLine
 10
1863.59523
 20
902.430301
 30
0.0
 11
1863.59523
 21
895.030301
 31
0.0
  0
LINE
  5
4BF
330
A
100
AcDbEntity
  8
0
  6
Continuous
100
AcDbLine
 10
1862.59523
 20
894.030301
 30
0.0
 11
1858.59523
 21
894.030301
 31
0.0
  0
LINE
  5
4C0
330
A
100
AcDbEntity
  8
0
  6
Continuous
100
AcDbLine
 10
1864.59523
 20
903.430301
 30
0.0
 11
1877.29523
 21
903.430301
 31
0.0
  0
ARC
  5
4C1
330
A
100
AcDbEntity
  8
0
  6
Continuous
100
AcDbCircle
 10
1903.09523
 20
887.9303009999999
 30
0.0
 40
1.5
100
AcDbArc
 50
262.69555
 51
45.050854
  0
ARC
  5
4C2
330
A
100
AcDbEntity
  8
0
  6
Continuous
100
AcDbCircle
 10
1899.76096
 20
889.5675109999999
 30
0.0
 40
1.0
100
AcDbArc
 50
262.69555
 51
45.0
  0
ARC
  5
4C3
330
A
100
AcDbEntity
  8
0
  6
Continuous
100
AcDbCircle
 10
1882.29523
 20
891.8063009999999
 30
0.0
 40
1.0
100
AcDbArc
 50
180.0
 51
262.69555
  0
ARC
  5
4C4
330
A
100
AcDbEntity
  8
0
  6
Continuous
100
AcDbCircle
 10
1882.29523
 20
907.033241
 30
0.0
 40
1.0
100
AcDbArc
 50
45.0
 51
180.0
  0
ARC
  5
4C5
330
A
100
AcDbEntity
  8
0
  6
Continuous
100
AcDbCircle
 10
1868.43228
 20
896.430301
 30
0.0
 40
20.0
100
AcDbArc
 50
45.0
 51
90.0
  0
ARC
  5
4C6
330
A
100
AcDbEntity
  8
0
  6
Continuous
100
AcDbCircle
 10
1877.29523
 20
905.4303009999999
 30
0.0
 40
2.0
100
AcDbArc
 50
270.0
 51
0.0
  0
ARC
  5
4C7
330
A
100
AcDbEntity
  8
0
  6
Continuous
100
AcDbCircle
 10
1868.43228
 20
896.430301
 30
0.0
 40
18.3
100
AcDbArc
 50
57.061441
 51
90.0
  0
ARC
  5
4C8
330
A
100
AcDbEntity
  8
0
  6
Continuous
100
AcDbCircle
 10
1877.29523
 20
910.110141
 30
0.0
 40
2.0
100
AcDbArc
 50
0.0
 51
57.061441
  0
ARC
  5
4C9
330
A
100
AcDbEntity
  8
0
  6
Continuous
100
AcDbCircle
 10
1866.59523
 20
898.4303009999999
 30
0.0
 40
1.0
100
AcDbArc
 50
90.0
 51
180.0
  0
ARC
  5
4CA
330
A
100
AcDbEntity
  8
0
  6
Continuous
100
AcDbCircle
 10
1878.59523
 20
898.4303009999999
 30
0.0
 40
1.0
100
AcDbArc
 50
0.0
 51
90.0
  0
ARC
  5
4CB
330
A
100
AcDbEntity
  8
0
  6
Continuous
100
AcDbCircle
 10
1858.59523
 20
913.730301
 30
0.0
 40
1.0
100
AcDbArc
 50
90.0
 51
180.0
  0
ARC
  5
4CC
330
A
100
AcDbEntity
  8
0
  6
Continuous
100
AcDbCircle
 10
1858.59523
 20
895.030301
 30
0.0
 40
1.0
100
AcDbArc
 50
180.0
 51
270.0
  0
ARC
  5
4CD
330
A
100
AcDbEntity
  8
0
  6
Continuous
100
AcDbCircle
 10
1862.59523
 20
895.030301
 30
0.0
 40
1.0
100
AcDbArc
 50
270.0
 51
0.0
  0
ARC
  5
4CE
330
A
100
AcDbEntity
  8
0
  6
Continuous
100
AcDbCircle
 10
1864.59523
 20
902.430301
 30
0.0
 40
1.0
100
AcDbArc
 50
90.0
 51
180.0
  0
LINE
  5
4CF
330
A
100
AcDbEntity
  8
0
  6
Continuous
100
AcDbLine
 10
1816.09523
 20
914.930301
 30
0.0
 11
1816.09523
 21
911.7303009999998
 31
0.0
  0
LINE
  5
4D0
330
A
100
AcDbEntity
  8
0
  6
Continuous
100
AcDbLine
 10
1816.09523
 20
911.7303009999998
 30
0.0
 11
1829.09523
 21
911.7303009999998
 31
0.0
  0
LINE
  5
4D1
330
A
100
AcDbEntity
  8
0
  6
Continuous
100
AcDbLine
 10
1829.09523
 20
911.7303009999998
 30
0.0
 11
1829.09523
 21
914.930301
 31
0.0
  0
LINE
  5
4D2
330
A
100
AcDbEntity
  8
0
  6
Continuous
100
AcDbLine
 10
1829.09523
 20
914.930301
 30
0.0
 11
1816.09523
 21
914.930301
 31
0.0
  0
LINE
  5
4D3
330
A
100
AcDbEntity
  8
0
  6
Continuous
100
AcDbLine
 10
1866.59523
 20
898.4303009999999
 30
0.0
 11
1866.59523
 21
890.4303009999999
 31
0.0
  0
LINE
  5
4D4
330
A
100
AcDbEntity
  8
0
  6
Continuous
100
AcDbLine
 10
1866.59523
 20
890.4303009999999
 30
0.0
 11
1868.59523
 21
890.4303009999999
 31
0.0
  0
LINE
  5
4D5
330
A
100
AcDbEntity
  8
0
  6
Continuous
100
AcDbLine
 10
1868.59523
 20
890.4303009999999
 30
0.0
 11
1868.59523
 21
896.430301
 31
0.0
  0
LINE
  5
4D6
330
A
100
AcDbEntity
  8
0
  6
Continuous
100
AcDbLine
 10
1868.59523
 20
896.430301
 30
0.0
 11
1876.59523
 21
896.430301
 31
0.0
  0
LINE
  5
4D7
330
A
100
AcDbEntity
  8
0
  6
Continuous
100
AcDbLine
 10
1876.59523
 20
896.430301
 30
0.0
 11
1876.59523
 21
890.4303009999999
 31
0.0
  0
LINE
  5
4D8
330
A
100
AcDbEntity
  8
0
  6
Continuous
100
AcDbLine
 10
1876.59523
 20
890.4303009999999
 30
0.0
 11
1878.59523
 21
890.4303009999999
 31
0.0
  0
LINE
  5
4D9
330
A
100
AcDbEntity
  8
0
  6
Continuous
100
AcDbLine
 10
1878.59523
 20
890.4303009999999
 30
0.0
 11
1878.59523
 21
898.4303009999999
 31
0.0
  0
LINE
  5
4DA
330
A
100
AcDbEntity
  8
0
  6
Continuous
100
AcDbLine
 10
1878.59523
 20
898.4303009999999
 30
0.0
 11
1866.59523
 21
898.4303009999999
 31
0.0
  0
LINE
  5
4DB
330
A
100
AcDbEntity
  8
0
  6
Continuous
100
AcDbLine
 10
1868.99523
 20
896.430301
 30
0.0
 11
1868.99523
 21
895.582611
 31
0.0
  0
LINE
  5
4DC
330
A
100
AcDbEntity
  8
0
  6
Continuous
100
AcDbLine
 10
1870.59523
 20
896.430301
 30
0.0
 11
1870.59523
 21
905.4303009999999
 31
0.0
  0
LINE
  5
4DD
330
A
100
AcDbEntity
  8
0
  6
Continuous
100
AcDbLine
 10
1870.59523
 20
905.4303009999999
 30
0.0
 11
1874.59523
 21
905.4303009999999
 31
0.0
  0
LINE
  5
4DE
330
A
100
AcDbEntity
  8
0
  6
Continuous
100
AcDbLine
 10
1874.59523
 20
905.4303009999999
 30
0.0
 11
1874.59523
 21
896.430301
 31
0.0
  0
LINE
  5
4DF
330
A
100
AcDbEntity
  8
0
  6
Continuous
100
AcDbLine
 10
1876.19523
 20
896.430301
 30
0.0
 11
1876.19523
 21
895.582611
 31
0.0
  0
ARC
  5
4E0
330
A
100
AcDbEntity
  8
0
  6
Continuous
100
AcDbCircle
 10
1870.51523
 20
895.582611
 30
0.0
 40
1.52
100
AcDbArc
 50
180.0
 51
255.08263
  0
ARC
  5
4E1
330
A
100
AcDbEntity
  8
0
  6
Continuous
100
AcDbCircle
 10
1874.67523
 20
895.582611
 30
0.0
 40
1.52
100
AcDbArc
 50
284.91736
 51
0.0
  0
ARC
  5
4E2
330
A
100
AcDbEntity
  8
0
  6
Continuous
100
AcDbCircle
 10
1872.59523
 20
903.3903010000001
 30
0.0
 40
9.599999999999999
100
AcDbArc
 50
255.08263
 51
284.91736
  0
LINE
  5
4E3
330
A
100
AcDbEntity
  8
0
  6
Continuous
100
AcDbLine
 10
1837.59523
 20
904.930301
 30
0.0
 11
1836.09523
 21
904.930301
 31
0.0
  0
LINE
  5
4E4
330
A
100
AcDbEntity
  8
0
  6
Continuous
100
AcDbLine
 10
1836.09523
 20
904.930301
 30
0.0
 11
1836.09523
 21
911.9303009999999
 31
0.0
  0
LINE
  5
4E5
330
A
100
AcDbEntity
  8
0
  6
Continuous
100
AcDbLine
 10
1836.09523
 20
911.9303009999999
 30
0.0
 11
1831.09523
 21
911.9303009999999
 31
0.0
  0
LINE
  5
4E6
330
A
100
AcDbEntity
  8
0
  6
Continuous
100
AcDbLine
 10
1831.09523
 20
911.9303009999999
 30
0.0
 11
1831.09523
 21
890.930301
 31
0.0
  0
LINE
  5
4E7
330
A
100
AcDbEntity
  8
0
  6
Continuous
100
AcDbLine
 10
1831.09523
 20
890.930301
 30
0.0
 11
1836.09523
 21
890.930301
 31
0.0
  0
LINE
  5
4E8
330
A
100
AcDbEntity
  8
0
  6
Continuous
100
AcDbLine
 10
1836.09523
 20
890.930301
 30
0.0
 11
1836.09523
 21
897.930301
 31
0.0
  0
LINE
  5
4E9
330
A
100
AcDbEntity
  8
0
  6
Continuous
100
AcDbLine
 10
1836.09523
 20
897.930301
 30
0.0
 11
1837.59523
 21
897.930301
 31
0.0
  0
LINE
  5
4EA
330
A
100
AcDbEntity
  8
0
  6
Continuous
100
AcDbLine
 10
1837.59523
 20
889.4303009999999
 30
0.0
 11
1831.09523
 21
889.4303009999999
 31
0.0
  0
LINE
  5
4EB
330
A
100
AcDbEntity
  8
0
  6
Continuous
100
AcDbLine
 10
1831.09523
 20
889.4303009999999
 30
0.0
 11
1831.09523
 21
886.430301
 31
0.0
  0
LINE
  5
4EC
330
A
100
AcDbEntity
  8
0
  6
Continuous
100
AcDbLine
 10
1831.09523
 20
886.430301
 30
0.0
 11
1827.09523
 21
886.430301
 31
0.0
  0
LINE
  5
4ED
330
A
100
AcDbEntity
  8
0
  6
Continuous
100
AcDbLine
 10
1827.09523
 20
886.430301
 30
0.0
 11
1827.09523
 21
887.9303009999999
 31
0.0
  0
LINE
  5
4EE
330
A
100
AcDbEntity
  8
0
  6
Continuous
100
AcDbLine
 10
1827.09523
 20
887.9303009999999
 30
0.0
 11
1829.59523
 21
887.9303009999999
 31
0.0
  0
LINE
  5
4EF
330
A
100
AcDbEntity
  8
0
  6
Continuous
100
AcDbLine
 10
1829.59523
 20
887.9303009999999
 30
0.0
 11
1829.59523
 21
894.9303009999999
 31
0.0
  0
LINE
  5
4F0
330
A
100
AcDbEntity
  8
0
  6
Continuous
100
AcDbLine
 10
1829.59523
 20
894.9303009999999
 30
0.0
 11
1815.59523
 21
894.9303009999999
 31
0.0
  0
LINE
  5
4F1
330
A
100
AcDbEntity
  8
0
  6
Continuous
100
AcDbLine
 10
1815.59523
 20
894.9303009999999
 30
0.0
 11
1815.59523
 21
887.9303009999999
 31
0.0
  0
LINE
  5
4F2
330
A
100
AcDbEntity
  8
0
  6
Continuous
100
AcDbLine
 10
1815.59523
 20
887.9303009999999
 30
0.0
 11
1818.09523
 21
887.9303009999999
 31
0.0
  0
LINE
  5
4F3
330
A
100
AcDbEntity
  8
0
  6
Continuous
100
AcDbLine
 10
1818.09523
 20
887.9303009999999
 30
0.0
 11
1818.09523
 21
886.430301
 31
0.0
  0
LINE
  5
4F4
330
A
100
AcDbEntity
  8
0
  6
Continuous
100
AcDbLine
 10
1818.09523
 20
886.430301
 30
0.0
 11
1814.09523
 21
886.430301
 31
0.0
  0
LINE
  5
4F5
330
A
100
AcDbEntity
  8
0
  6
Continuous
100
AcDbLine
 10
1814.09523
 20
886.430301
 30
0.0
 11
1814.09523
 21
889.4303009999999
 31
0.0
  0
LINE
  5
4F6
330
A
100
AcDbEntity
  8
0
  6
Continuous
100
AcDbLine
 10
1814.09523
 20
889.4303009999999
 30
0.0
 11
1807.59523
 21
889.4303009999999
 31
0.0
  0
LINE
  5
4F7
330
A
100
AcDbEntity
  8
0
  6
Continuous
100
AcDbLine
 10
1807.59523
 20
889.4303009999999
 30
0.0
 11
1807.59523
 21
897.930301
 31
0.0
  0
LINE
  5
4F8
330
A
100
AcDbEntity
  8
0
  6
Continuous
100
AcDbLine
 10
1807.59523
 20
897.930301
 30
0.0
 11
1809.09523
 21
897.930301
 31
0.0
  0
LINE
  5
4F9
330
A
100
AcDbEntity
  8
0
  6
Continuous
100
AcDbLine
 10
1809.09523
 20
897.930301
 30
0.0
 11
1809.09523
 21
890.930301
 31
0.0
  0
LINE
  5
4FA
330
A
100
AcDbEntity
  8
0
  6
Continuous
100
AcDbLine
 10
1809.09523
 20
890.930301
 30
0.0
 11
1814.09523
 21
890.930301
 31
0.0
  0
LINE
  5
4FB
330
A
100
AcDbEntity
  8
0
  6
Continuous
100
AcDbLine
 10
1814.09523
 20
890.930301
 30
0.0
 11
1814.09523
 21
911.9303009999999
 31
0.0
  0
LINE
  5
4FC
330
A
100
AcDbEntity
  8
0
  6
Continuous
100
AcDbLine
 10
1814.09523
 20
911.9303009999999
 30
0.0
 11
1809.09523
 21
911.9303009999999
 31
0.0
  0
LINE
  5
4FD
330
A
100
AcDbEntity
  8
0
  6
Continuous
100
AcDbLine
 10
1809.09523
 20
911.9303009999999
 30
0.0
 11
1809.09523
 21
904.930301
 31
0.0
  0
LINE
  5
4FE
330
A
100
AcDbEntity
  8
0
  6
Continuous
100
AcDbLine
 10
1809.09523
 20
904.930301
 30
0.0
 11
1807.59523
 21
904.930301
 31
0.0
  0
LINE
  5
4FF
330
A
100
AcDbEntity
  8
0
  6
Continuous
100
AcDbLine
 10
1807.59523
 20
904.930301
 30
0.0
 11
1807.59523
 21
913.430301
 31
0.0
  0
LINE
  5
500
330
A
100
AcDbEntity
  8
0
  6
Continuous
100
AcDbLine
 10
1807.59523
 20
913.430301
 30
0.0
 11
1814.09523
 21
913.430301
 31
0.0
  0
LINE
  5
501
330
A
100
AcDbEntity
  8
0
  6
Continuous
100
AcDbLine
 10
1814.09523
 20
913.430301
 30
0.0
 11
1814.09523
 21
916.4303009999999
 31
0.0
  0
LINE
  5
502
330
A
100
AcDbEntity
  8
0
  6
Continuous
100
AcDbLine
 10
1818.09523
 20
916.4303009999999
 30
0.0
 11
1818.09523
 21
914.930301
 31
0.0
  0
LINE
  5
503
330
A
100
AcDbEntity
  8
0
  6
Continuous
100
AcDbLine
 10
1818.09523
 20
914.930301
 30
0.0
 11
1815.59523
 21
914.930301
 31
0.0
  0
LINE
  5
504
330
A
100
AcDbEntity
  8
0
  6
Continuous
100
AcDbLine
 10
1815.59523
 20
914.930301
 30
0.0
 11
1815.59523
 21
907.930301
 31
0.0
  0
LINE
  5
505
330
A
100
AcDbEntity
  8
0
  6
Continuous
100
AcDbLine
 10
1815.59523
 20
907.930301
 30
0.0
 11
1829.59523
 21
907.930301
 31
0.0
  0
LINE
  5
506
330
A
100
AcDbEntity
  8
0
  6
Continuous
100
AcDbLine
 10
1829.59523
 20
907.930301
 30
0.0
 11
1829.59523
 21
914.930301
 31
0.0
  0
LINE
  5
507
330
A
100
AcDbEntity
  8
0
  6
Continuous
100
AcDbLine
 10
1829.59523
 20
914.930301
 30
0.0
 11
1827.09523
 21
914.930301
 31
0.0
  0
LINE
  5
508
330
A
100
AcDbEntity
  8
0
  6
Continuous
100
AcDbLine
 10
1827.09523
 20
914.930301
 30
0.0
 11
1827.09523
 21
916.4303009999999
 31
0.0
  0
LINE
  5
509
330
A
100
AcDbEntity
  8
0
  6
Continuous
100
AcDbLine
 10
1831.09523
 20
916.4303009999999
 30
0.0
 11
1831.09523
 21
913.430301
 31
0.0
  0
LINE
  5
50A
330
A
100
AcDbEntity
  8
0
  6
Continuous
100
AcDbLine
 10
1831.09523
 20
913.430301
 30
0.0
 11
1837.59523
 21
913.430301
 31
0.0
  0
LINE
  5
50B
330
A
100
AcDbEntity
  8
0
  6
Continuous
100
AcDbLine
 10
1807.59523
 20
920.835411
 30
0.0
 11
1807.59523
 21
913.430301
 31
0.0
  0
LINE
  5
50C
330
A
100
AcDbEntity
  8
0
  6
Continuous
100
AcDbLine
 10
1814.09523
 20
917.6303009999999
 30
0.0
 11
1814.09523
 21
921.5042909999999
 31
0.0
  0
LINE
  5
50D
330
A
100
AcDbEntity
  8
0
  6
Continuous
100
AcDbLine
 10
1818.09523
 20
921.8733310000001
 30
0.0
 11
1818.09523
 21
917.6303009999999
 31
0.0
  0
LINE
  5
50E
330
A
100
AcDbEntity
  8
0
  6
Continuous
100
AcDbLine
 10
1829.59523
 20
906.1303010000001
 30
0.0
 11
1829.59523
 21
896.730301
 31
0.0
  0
LINE
  5
50F
330
A
100
AcDbEntity
  8
0
  6
Continuous
100
AcDbLine
 10
1829.59523
 20
896.730301
 30
0.0
 11
1815.59523
 21
896.730301
 31
0.0
  0
LINE
  5
510
330
A
100
AcDbEntity
  8
0
  6
Continuous
100
AcDbLine
 10
1815.59523
 20
896.730301
 30
0.0
 11
1815.59523
 21
906.1303010000001
 31
0.0
  0
LINE
  5
511
330
A
100
AcDbEntity
  8
0
  6
Continuous
100
AcDbLine
 10
1815.59523
 20
906.1303010000001
 30
0.0
 11
1829.59523
 21
906.1303010000001
 31
0.0
  0
LINE
  5
512
330
A
100
AcDbEntity
  8
0
  6
Continuous
100
AcDbLine
 10
1827.09523
 20
917.6303009999999
 30
0.0
 11
1827.09523
 21
920.720091
 31
0.0
  0
LINE
  5
513
330
A
100
AcDbEntity
  8
0
  6
Continuous
100
AcDbLine
 10
1831.09523
 20
920.6739609999999
 30
0.0
 11
1831.09523
 21
917.6303009999999
 31
0.0
  0
LINE
  5
514
330
A
100
AcDbEntity
  8
0
  6
Continuous
100
AcDbLine
 10
1837.59523
 20
889.4303009999999
 30
0.0
 11
1837.59523
 21
913.430301
 31
0.0
  0
LINE
  5
515
330
A
100
AcDbEntity
  8
0
  6
Continuous
100
AcDbLine
 10
1837.59523
 20
913.430301
 30
0.0
 11
1845.99523
 21
913.430301
 31
0.0
  0
LINE
  5
516
330
A
100
AcDbEntity
  8
0
  6
Continuous
100
AcDbLine
 10
1845.99523
 20
919.430301
 30
0.0
 11
1834.09523
 21
919.430301
 31
0.0
  0
LINE
  5
517
330
A
100
AcDbEntity
  8
0
  6
Continuous
100
AcDbLine
 10
1834.09523
 20
921.030301
 30
0.0
 11
1847.59523
 21
921.030301
 31
0.0
  0
LINE
  5
518
330
A
100
AcDbEntity
  8
0
  6
Continuous
100
AcDbLine
 10
1847.59523
 20
921.030301
 30
0.0
 11
1847.59523
 21
889.4303009999999
 31
0.0
  0
LINE
  5
519
330
A
100
AcDbEntity
  8
0
  6
Continuous
100
AcDbLine
 10
1847.59523
 20
889.4303009999999
 30
0.0
 11
1837.59523
 21
889.4303009999999
 31
0.0
  0
LINE
  5
51A
330
A
100
AcDbEntity
  8
0
  6
Continuous
100
AcDbLine
 10
1845.99523
 20
919.430301
 30
0.0
 11
1845.99523
 21
889.4303009999999
 31
0.0
  0
LINE
  5
51B
330
A
100
AcDbEntity
  8
0
  6
Continuous
100
AcDbLine
 10
1856.09523
 20
887.9303009999999
 30
0.0
 11
1858.34523
 21
887.9303009999999
 31
0.0
  0
LINE
  5
51C
330
A
100
AcDbEntity
  8
0
  6
Continuous
100
AcDbLine
 10
1861.84523
 20
887.9303009999999
 30
0.0
 11
1864.09523
 21
887.9303009999999
 31
0.0
  0
LINE
  5
51D
330
A
100
AcDbEntity
  8
0
  6
Continuous
100
AcDbLine
 10
1845.59523
 20
926.830301
 30
0.0
 11
1841.23693
 21
926.830301
 31
0.0
  0
LINE
  5
51E
330
A
100
AcDbEntity
  8
0
  6
Continuous
100
AcDbLine
 10
1841.23693
 20
926.830301
 30
0.0
 11
1835.35259
 21
926.830301
 31
0.0
  0
LINE
  5
51F
330
A
100
AcDbEntity
  8
0
  6
Continuous
100
AcDbLine
 10
1835.35259
 20
926.830301
 30
0.0
 11
1835.35259
 21
922.2303009999999
 31
0.0
  0
LINE
  5
520
330
A
100
AcDbEntity
  8
0
  6
Continuous
100
AcDbLine
 10
1836.20112
 20
922.2303009999999
 30
0.0
 11
1836.20112
 21
926.830301
 31
0.0
  0
LINE
  5
521
330
A
100
AcDbEntity
  8
0
  6
Continuous
100
AcDbLine
 10
1845.59523
 20
921.030301
 30
0.0
 11
1845.59523
 21
926.830301
 31
0.0
  0
LINE
  5
522
330
A
100
AcDbEntity
  8
0
  6
Continuous
100
AcDbLine
 10
1845.59523
 20
926.830301
 30
0.0
 11
1851.59523
 21
926.830301
 31
0.0
  0
LINE
  5
523
330
A
100
AcDbEntity
  8
0
  6
Continuous
100
AcDbLine
 10
1851.59523
 20
926.830301
 30
0.0
 11
1851.59523
 21
921.030301
 31
0.0
  0
LINE
  5
524
330
A
100
AcDbEntity
  8
0
  6
Continuous
100
AcDbLine
 10
1851.59523
 20
921.030301
 30
0.0
 11
1852.79523
 21
921.030301
 31
0.0
  0
LINE
  5
525
330
A
100
AcDbEntity
  8
0
  6
Continuous
100
AcDbLine
 10
1852.79523
 20
921.030301
 30
0.0
 11
1852.79523
 21
928.030301
 31
0.0
  0
LINE
  5
526
330
A
100
AcDbEntity
  8
0
  6
Continuous
100
AcDbLine
 10
1852.79523
 20
928.030301
 30
0.0
 11
1841.23693
 21
928.030301
 31
0.0
  0
LINE
  5
527
330
A
100
AcDbEntity
  8
0
  6
Continuous
100
AcDbLine
 10
1841.23693
 20
928.030301
 30
0.0
 11
1841.23693
 21
926.830301
 31
0.0
  0
LINE
  5
528
330
A
100
AcDbEntity
  8
0
  6
Continuous
100
AcDbLine
 10
1832.89523
 20
918.530301
 30
0.0
 11
1832.89523
 21
922.2303009999999
 31
0.0
  0
LINE
  5
529
330
A
100
AcDbEntity
  8
0
  6
Continuous
100
AcDbLine
 10
1832.89523
 20
922.2303009999999
 30
0.0
 11
1844.39523
 21
922.2303009999999
 31
0.0
  0
LINE
  5
52A
330
A
100
AcDbEntity
  8
0
  6
Continuous
100
AcDbLine
 10
1844.39523
 20
922.2303009999999
 30
0.0
 11
1844.39523
 21
928.030301
 31
0.0
  0
LINE
  5
52B
330
A
100
AcDbEntity
  8
0
  6
Continuous
100
AcDbLine
 10
1837.34523
 20
921.030301
 30
0.0
 11
1837.34523
 21
922.2303009999999
 31
0.0
  0
LINE
  5
52C
330
A
100
AcDbEntity
  8
0
  6
Continuous
100
AcDbLine
 10
1834.09523
 20
921.030301
 30
0.0
 11
1834.09523
 21
918.530301
 31
0.0
  0
LINE
  5
52D
330
A
100
AcDbEntity
  8
0
  6
Continuous
100
AcDbLine
 10
1834.09523
 20
918.530301
 30
0.0
 11
1832.89523
 21
918.530301
 31
0.0
  0
LINE
  5
52E
330
A
100
AcDbEntity
  8
0
  6
Continuous
100
AcDbLine
 10
1841.84523
 20
921.030301
 30
0.0
 11
1841.84523
 21
922.2303009999999
 31
0.0
  0
LINE
  5
52F
330
A
100
AcDbEntity
  8
0
  6
Continuous
100
AcDbLine
 10
1825.29523
 20
1397.230301
 30
0.0
 11
1833.59523
 21
1397.230301
 31
0.0
  0
LINE
  5
530
330
A
100
AcDbEntity
  8
0
  6
Continuous
100
AcDbLine
 10
1833.59523
 20
1399.030301
 30
0.0
 11
1825.29523
 21
1399.030301
 31
0.0
  0
LINE
  5
531
330
A
100
AcDbEntity
  8
0
  6
Continuous
100
AcDbLine
 10
1825.37137
 20
1399.033531
 30
0.0
 11
1772.65124
 21
1394.557291
 31
0.0
  0
LINE
  5
532
330
A
100
AcDbEntity
  8
0
  6
Continuous
100
AcDbLine
 10
1772.49896
 20
1396.350841
 30
0.0
 11
1825.21909
 21
1400.827071
 31
0.0
  0
LINE
  5
533
330
A
100
AcDbEntity
  8
0
  6
Continuous
100
AcDbLine
 10
1825.29523
 20
1400.830301
 30
0.0
 11
1833.59523
 21
1400.830301
 31
0.0
  0
LINE
  5
534
330
A
100
AcDbEntity
  8
0
  6
Continuous
100
AcDbLine
 10
1833.59523
 20
1402.630301
 30
0.0
 11
1825.29523
 21
1402.630301
 31
0.0
  0
LINE
  5
535
330
A
100
AcDbEntity
  8
0
  6
Continuous
100
AcDbLine
 10
1825.21909
 20
1399.033531
 30
0.0
 11
1772.49896
 21
1403.509761
 31
0.0
  0
LINE
  5
536
330
A
100
AcDbEntity
  8
0
  6
Continuous
100
AcDbLine
 10
1772.65124
 20
1405.303311
 30
0.0
 11
1825.37137
 21
1400.827071
 31
0.0
  0
CIRCLE
  5
537
330
A
100
AcDbEntity
  8
0
  6
Continuous
100
AcDbCircle
 10
1846.49523
 20
1399.930301
 30
0.0
 40
0.9
  0
CIRCLE
  5
538
330
A
100
AcDbEntity
  8
0
  6
Continuous
100
AcDbCircle
 10
1846.49523
 20
1401.730301
 30
0.0
 40
0.9
  0
CIRCLE
  5
539
330
A
100
AcDbEntity
  8
0
  6
Continuous
100
AcDbCircle
 10
1846.49523
 20
1398.130301
 30
0.0
 40
0.9
  0
CIRCLE
  5
53A
330
A
100
AcDbEntity
  8
0
  6
Continuous
100
AcDbCircle
 10
1825.29523
 20
1399.930301
 30
0.0
 40
0.9
  0
CIRCLE
  5
53B
330
A
100
AcDbEntity
  8
0
  6
Continuous
100
AcDbCircle
 10
1825.29523
 20
1401.730301
 30
0.0
 40
0.9
  0
CIRCLE
  5
53C
330
A
100
AcDbEntity
  8
0
  6
Continuous
100
AcDbCircle
 10
1825.29523
 20
1398.130301
 30
0.0
 40
0.9
  0
CIRCLE
  5
53D
330
A
100
AcDbEntity
  8
0
  6
Continuous
100
AcDbCircle
 10
1772.5751
 20
1395.454061
 30
0.0
 40
0.9
  0
CIRCLE
  5
53E
330
A
100
AcDbEntity
  8
0
  6
Continuous
100
AcDbCircle
 10
1772.5751
 20
1404.406541
 30
0.0
 40
0.9
  0
LINE
  5
53F
330
A
100
AcDbEntity
  8
0
  6
Continuous
100
AcDbLine
 10
1847.59523
 20
1434.430301
 30
0.0
 11
1854.59523
 21
1434.430301
 31
0.0
  0
LINE
  5
540
330
A
100
AcDbEntity
  8
0
  6
Continuous
100
AcDbLine
 10
1854.59523
 20
1434.430301
 30
0.0
 11
1854.59523
 21
1437.430301
 31
0.0
  0
LINE
  5
541
330
A
100
AcDbEntity
  8
0
  6
Continuous
100
AcDbLine
 10
1854.59523
 20
1437.430301
 30
0.0
 11
1858.09523
 21
1437.430301
 31
0.0
  0
LINE
  5
542
330
A
100
AcDbEntity
  8
0
  6
Continuous
100
AcDbLine
 10
1858.09523
 20
1437.430301
 30
0.0
 11
1858.09523
 21
1435.930301
 31
0.0
  0
LINE
  5
543
330
A
100
AcDbEntity
  8
0
  6
Continuous
100
AcDbLine
 10
1856.09523
 20
1435.930301
 30
0.0
 11
1856.09523
 21
1431.830301
 31
0.0
  0
LINE
  5
544
330
A
100
AcDbEntity
  8
0
  6
Continuous
100
AcDbLine
 10
1856.09523
 20
1431.830301
 30
0.0
 11
1864.09523
 21
1431.830301
 31
0.0
  0
LINE
  5
545
330
A
100
AcDbEntity
  8
0
  6
Continuous
100
AcDbLine
 10
1864.09523
 20
1431.830301
 30
0.0
 11
1864.09523
 21
1435.930301
 31
0.0
  0
LINE
  5
546
330
A
100
AcDbEntity
  8
0
  6
Continuous
100
AcDbLine
 10
1862.09523
 20
1435.930301
 30
0.0
 11
1862.09523
 21
1437.430301
 31
0.0
  0
LINE
  5
547
330
A
100
AcDbEntity
  8
0
  6
Continuous
100
AcDbLine
 10
1862.09523
 20
1437.430301
 30
0.0
 11
1865.59523
 21
1437.430301
 31
0.0
  0
LINE
  5
548
330
A
100
AcDbEntity
  8
0
  6
Continuous
100
AcDbLine
 10
1865.59523
 20
1437.430301
 30
0.0
 11
1865.59523
 21
1425.430301
 31
0.0
  0
LINE
  5
549
330
A
100
AcDbEntity
  8
0
  6
Continuous
100
AcDbLine
 10
1878.59523
 20
1424.430301
 30
0.0
 11
1866.59523
 21
1424.430301
 31
0.0
  0
LINE
  5
54A
330
A
100
AcDbEntity
  8
0
  6
Continuous
100
AcDbLine
 10
1902.90452
 20
1437.418131
 30
0.0
 11
1879.59523
 21
1434.430301
 31
0.0
  0
LINE
  5
54B
330
A
100
AcDbEntity
  8
0
  6
Continuous
100
AcDbLine
 10
1879.59523
 20
1434.430301
 30
0.0
 11
1879.59523
 21
1425.430301
 31
0.0
  0
LINE
  5
54C
330
A
100
AcDbEntity
  8
0
  6
Continuous
100
AcDbLine
 10
1879.29523
 20
1418.430301
 30
0.0
 11
1879.29523
 21
1413.750461
 31
0.0
  0
LINE
  5
54D
330
A
100
AcDbEntity
  8
0
  6
Continuous
100
AcDbLine
 10
1882.57442
 20
1413.288161
 30
0.0
 11
1904.15495
 21
1434.868701
 31
0.0
  0
LINE
  5
54E
330
A
100
AcDbEntity
  8
0
  6
Continuous
100
AcDbLine
 10
1899.63382
 20
1435.284971
 30
0.0
 11
1882.16809
 21
1433.046181
 31
0.0
  0
LINE
  5
54F
330
A
100
AcDbEntity
  8
0
  6
Continuous
100
AcDbLine
 10
1881.29523
 20
1432.054301
 30
0.0
 11
1881.29523
 21
1416.827361
 31
0.0
  0
LINE
  5
550
330
A
100
AcDbEntity
  8
0
  6
Continuous
100
AcDbLine
 10
1883.00234
 20
1416.120251
 30
0.0
 11
1900.46807
 21
1433.585981
 31
0.0
  0
LINE
  5
551
330
A
100
AcDbEntity
  8
0
  6
Continuous
100
AcDbLine
 10
1836.39523
 20
1392.430301
 30
0.0
 11
1837.59523
 21
1392.430301
 31
0.0
  0
LINE
  5
552
330
A
100
AcDbEntity
  8
0
  6
Continuous
100
AcDbLine
 10
1836.39523
 20
1392.430301
 30
0.0
 11
1836.39523
 21
1406.230301
 31
0.0
  0
LINE
  5
553
330
A
100
AcDbEntity
  8
0
  6
Continuous
100
AcDbLine
 10
1836.39523
 20
1406.230301
 30
0.0
 11
1812.59523
 21
1406.230301
 31
0.0
  0
LINE
  5
554
330
A
100
AcDbEntity
  8
0
  6
Continuous
100
AcDbLine
 10
1812.59523
 20
1406.230301
 30
0.0
 11
1812.59523
 21
1407.430301
 31
0.0
  0
LINE
  5
555
330
A
100
AcDbEntity
  8
0
  6
Continuous
100
AcDbLine
 10
1812.59523
 20
1407.430301
 30
0.0
 11
1837.59523
 21
1407.430301
 31
0.0
  0
LINE
  5
556
330
A
100
AcDbEntity
  8
0
  6
Continuous
100
AcDbLine
 10
1828.59523
 20
1406.230301
 30
0.0
 11
1828.59523
 21
1407.430301
 31
0.0
  0
LINE
  5
557
330
A
100
AcDbEntity
  8
0
  6
Continuous
100
AcDbLine
 10
1847.59523
 20
929.069521
 30
0.0
 11
1847.59523
 21
1395.342921
 31
0.0
  0
LINE
  5
558
330
A
100
AcDbEntity
  8
0
  6
Continuous
100
AcDbLine
 10
1847.59523
 20
1410.430301
 30
0.0
 11
1854.59523
 21
1410.430301
 31
0.0
  0
LINE
  5
559
330
A
100
AcDbEntity
  8
0
  6
Continuous
100
AcDbLine
 10
1854.59523
 20
1410.430301
 30
0.0
 11
1854.59523
 21
1407.430301
 31
0.0
  0
LINE
  5
55A
330
A
100
AcDbEntity
  8
0
  6
Continuous
100
AcDbLine
 10
1854.59523
 20
1407.430301
 30
0.0
 11
1868.43228
 21
1407.430301
 31
0.0
  0
LINE
  5
55B
330
A
100
AcDbEntity
  8
0
  6
Continuous
100
AcDbLine
 10
1868.43228
 20
1409.130301
 30
0.0
 11
1858.59523
 21
1409.130301
 31
0.0
  0
LINE
  5
55C
330
A
100
AcDbEntity
  8
0
  6
Continuous
100
AcDbLine
 10
1857.59523
 20
1410.130301
 30
0.0
 11
1857.59523
 21
1428.830301
 31
0.0
  0
LINE
  5
55D
330
A
100
AcDbEntity
  8
0
  6
Continuous
100
AcDbLine
 10
1858.59523
 20
1429.830301
 30
0.0
 11
1862.59523
 21
1429.830301
 31
0.0
  0
LINE
  5
55E
330
A
100
AcDbEntity
  8
0
  6
Continuous
100
AcDbLine
 10
1863.59523
 20
1428.830301
 30
0.0
 11
1863.59523
 21
1421.430301
 31
0.0
  0
LINE
  5
55F
330
A
100
AcDbEntity
  8
0
  6
Continuous
100
AcDbLine
 10
1864.59523
 20
1420.430301
 30
0.0
 11
1877.29523
 21
1420.430301
 31
0.0
  0
LINE
  5
560
330
A
100
AcDbEntity
  8
0
  6
Continuous
100
AcDbLine
 10
1854.59523
 20
1432.930301
 30
0.0
 11
1854.59523
 21
1411.930301
 31
0.0
  0
LINE
  5
561
330
A
100
AcDbEntity
  8
0
  6
Continuous
100
AcDbLine
 10
1854.59523
 20
1411.930301
 30
0.0
 11
1849.59523
 21
1411.930301
 31
0.0
  0
LINE
  5
562
330
A
100
AcDbEntity
  8
0
  6
Continuous
100
AcDbLine
 10
1849.59523
 20
1411.930301
 30
0.0
 11
1849.59523
 21
1418.930301
 31
0.0
  0
LINE
  5
563
330
A
100
AcDbEntity
  8
0
  6
Continuous
100
AcDbLine
 10
1849.59523
 20
1418.930301
 30
0.0
 11
1847.59523
 21
1418.930301
 31
0.0
  0
LINE
  5
564
330
A
100
AcDbEntity
  8
0
  6
Continuous
100
AcDbLine
 10
1847.59523
 20
1425.930301
 30
0.0
 11
1849.59523
 21
1425.930301
 31
0.0
  0
LINE
  5
565
330
A
100
AcDbEntity
  8
0
  6
Continuous
100
AcDbLine
 10
1849.59523
 20
1425.930301
 30
0.0
 11
1849.59523
 21
1432.930301
 31
0.0
  0
LINE
  5
566
330
A
100
AcDbEntity
  8
0
  6
Continuous
100
AcDbLine
 10
1849.59523
 20
1432.930301
 30
0.0
 11
1854.59523
 21
1432.930301
 31
0.0
  0
LINE
  5
567
330
A
100
AcDbEntity
  8
0
  6
Continuous
100
AcDbLine
 10
1854.59523
 20
1407.430301
 30
0.0
 11
1854.59523
 21
916.4303009999999
 31
0.0
  0
ARC
  5
568
330
A
100
AcDbEntity
  8
0
  6
Continuous
100
AcDbCircle
 10
1903.09523
 20
1435.930301
 30
0.0
 40
1.5
100
AcDbArc
 50
314.94914
 51
97.304446
  0
ARC
  5
569
330
A
100
AcDbEntity
  8
0
  6
Continuous
100
AcDbCircle
 10
1899.76096
 20
1434.293091
 30
0.0
 40
1.0
100
AcDbArc
 50
315.0
 51
97.304446
  0
ARC
  5
56A
330
A
100
AcDbEntity
  8
0
  6
Continuous
100
AcDbCircle
 10
1882.29523
 20
1432.054301
 30
0.0
 40
1.0
100
AcDbArc
 50
97.304446
 51
180.0
  0
ARC
  5
56B
330
A
100
AcDbEntity
  8
0
  6
Continuous
100
AcDbCircle
 10
1882.29523
 20
1416.827361
 30
0.0
 40
1.0
100
AcDbArc
 50
180.0
 51
315.0
  0
ARC
  5
56C
330
A
100
AcDbEntity
  8
0
  6
Continuous
100
AcDbCircle
 10
1868.43228
 20
1427.430301
 30
0.0
 40
20.0
100
AcDbArc
 50
270.0
 51
315.0
  0
ARC
  5
56D
330
A
100
AcDbEntity
  8
0
  6
Continuous
100
AcDbCircle
 10
1877.29523
 20
1418.430301
 30
0.0
 40
2.0
100
AcDbArc
 50
0.0
 51
90.0
  0
ARC
  5
56E
330
A
100
AcDbEntity
  8
0
  6
Continuous
100
AcDbCircle
 10
1868.43228
 20
1427.430301
 30
0.0
 40
18.3
100
AcDbArc
 50
270.0
 51
302.93855
  0
ARC
  5
56F
330
A
100
AcDbEntity
  8
0
  6
Continuous
100
AcDbCircle
 10
1877.29523
 20
1413.750461
 30
0.0
 40
2.0
100
AcDbArc
 50
302.93855
 51
0.0
  0
ARC
  5
570
330
A
100
AcDbEntity
  8
0
  6
Continuous
100
AcDbCircle
 10
1866.59523
 20
1425.430301
 30
0.0
 40
1.0
100
AcDbArc
 50
180.0
 51
270.0
  0
ARC
  5
571
330
A
100
AcDbEntity
  8
0
  6
Continuous
100
AcDbCircle
 10
1878.59523
 20
1425.430301
 30
0.0
 40
1.0
100
AcDbArc
 50
270.0
 51
0.0
  0
ARC
  5
572
330
A
100
AcDbEntity
  8
0
  6
Continuous
100
AcDbCircle
 10
1858.59523
 20
1410.130301
 30
0.0
 40
1.0
100
AcDbArc
 50
180.0
 51
270.0
  0
ARC
  5
573
330
A
100
AcDbEntity
  8
0
  6
Continuous
100
AcDbCircle
 10
1858.59523
 20
1428.830301
 30
0.0
 40
1.0
100
AcDbArc
 50
90.0
 51
180.0
  0
ARC
  5
574
330
A
100
AcDbEntity
  8
0
  6
Continuous
100
AcDbCircle
 10
1862.59523
 20
1428.830301
 30
0.0
 40
1.0
100
AcDbArc
 50
0.0
 51
90.0
  0
ARC
  5
575
330
A
100
AcDbEntity
  8
0
  6
Continuous
100
AcDbCircle
 10
1864.59523
 20
1421.430301
 30
0.0
 40
1.0
100
AcDbArc
 50
180.0
 51
270.0
  0
LINE
  5
576
330
A
100
AcDbEntity
  8
0
  6
Continuous
100
AcDbLine
 10
1866.59523
 20
1425.430301
 30
0.0
 11
1866.59523
 21
1433.430301
 31
0.0
  0
LINE
  5
577
330
A
100
AcDbEntity
  8
0
  6
Continuous
100
AcDbLine
 10
1866.59523
 20
1433.430301
 30
0.0
 11
1868.59523
 21
1433.430301
 31
0.0
  0
LINE
  5
578
330
A
100
AcDbEntity
  8
0
  6
Continuous
100
AcDbLine
 10
1868.59523
 20
1433.430301
 30
0.0
 11
1868.59523
 21
1427.430301
 31
0.0
  0
LINE
  5
579
330
A
100
AcDbEntity
  8
0
  6
Continuous
100
AcDbLine
 10
1868.59523
 20
1427.430301
 30
0.0
 11
1876.59523
 21
1427.430301
 31
0.0
  0
LINE
  5
57A
330
A
100
AcDbEntity
  8
0
  6
Continuous
100
AcDbLine
 10
1876.59523
 20
1427.430301
 30
0.0
 11
1876.59523
 21
1433.430301
 31
0.0
  0
LINE
  5
57B
330
A
100
AcDbEntity
  8
0
  6
Continuous
100
AcDbLine
 10
1876.59523
 20
1433.430301
 30
0.0
 11
1878.59523
 21
1433.430301
 31
0.0
  0
LINE
  5
57C
330
A
100
AcDbEntity
  8
0
  6
Continuous
100
AcDbLine
 10
1878.59523
 20
1433.430301
 30
0.0
 11
1878.59523
 21
1425.430301
 31
0.0
  0
LINE
  5
57D
330
A
100
AcDbEntity
  8
0
  6
Continuous
100
AcDbLine
 10
1878.59523
 20
1425.430301
 30
0.0
 11
1866.59523
 21
1425.430301
 31
0.0
  0
LINE
  5
57E
330
A
100
AcDbEntity
  8
0
  6
Continuous
100
AcDbLine
 10
1868.99523
 20
1427.430301
 30
0.0
 11
1868.99523
 21
1428.277991
 31
0.0
  0
LINE
  5
57F
330
A
100
AcDbEntity
  8
0
  6
Continuous
100
AcDbLine
 10
1870.59523
 20
1427.430301
 30
0.0
 11
1870.59523
 21
1418.430301
 31
0.0
  0
LINE
  5
580
330
A
100
AcDbEntity
  8
0
  6
Continuous
100
AcDbLine
 10
1870.59523
 20
1418.430301
 30
0.0
 11
1874.59523
 21
1418.430301
 31
0.0
  0
LINE
  5
581
330
A
100
AcDbEntity
  8
0
  6
Continuous
100
AcDbLine
 10
1874.59523
 20
1418.430301
 30
0.0
 11
1874.59523
 21
1427.430301
 31
0.0
  0
LINE
  5
582
330
A
100
AcDbEntity
  8
0
  6
Continuous
100
AcDbLine
 10
1876.19523
 20
1427.430301
 30
0.0
 11
1876.19523
 21
1428.277991
 31
0.0
  0
ARC
  5
583
330
A
100
AcDbEntity
  8
0
  6
Continuous
100
AcDbCircle
 10
1870.51523
 20
1428.277991
 30
0.0
 40
1.52
100
AcDbArc
 50
104.91736
 51
180.0
  0
ARC
  5
584
330
A
100
AcDbEntity
  8
0
  6
Continuous
100
AcDbCircle
 10
1874.67523
 20
1428.277991
 30
0.0
 40
1.52
100
AcDbArc
 50
0.0
 51
75.082631
  0
ARC
  5
585
330
A
100
AcDbEntity
  8
0
  6
Continuous
100
AcDbCircle
 10
1872.59523
 20
1420.470301
 30
0.0
 40
9.599999999999999
100
AcDbArc
 50
75.082631
 51
104.91736
  0
LINE
  5
586
330
A
100
AcDbEntity
  8
0
  6
Continuous
100
AcDbLine
 10
1837.59523
 20
913.430301
 30
0.0
 11
1837.59523
 21
1410.430301
 31
0.0
  0
LINE
  5
587
330
A
100
AcDbEntity
  8
0
  6
Continuous
100
AcDbLine
 10
1837.59523
 20
1418.930301
 30
0.0
 11
1836.09523
 21
1418.930301
 31
0.0
  0
LINE
  5
588
330
A
100
AcDbEntity
  8
0
  6
Continuous
100
AcDbLine
 10
1836.09523
 20
1418.930301
 30
0.0
 11
1836.09523
 21
1411.930301
 31
0.0
  0
LINE
  5
589
330
A
100
AcDbEntity
  8
0
  6
Continuous
100
AcDbLine
 10
1836.09523
 20
1411.930301
 30
0.0
 11
1831.09523
 21
1411.930301
 31
0.0
  0
LINE
  5
58A
330
A
100
AcDbEntity
  8
0
  6
Continuous
100
AcDbLine
 10
1831.09523
 20
1411.930301
 30
0.0
 11
1831.09523
 21
1432.930301
 31
0.0
  0
LINE
  5
58B
330
A
100
AcDbEntity
  8
0
  6
Continuous
100
AcDbLine
 10
1831.09523
 20
1432.930301
 30
0.0
 11
1836.09523
 21
1432.930301
 31
0.0
  0
LINE
  5
58C
330
A
100
AcDbEntity
  8
0
  6
Continuous
100
AcDbLine
 10
1836.09523
 20
1432.930301
 30
0.0
 11
1836.09523
 21
1425.930301
 31
0.0
  0
LINE
  5
58D
330
A
100
AcDbEntity
  8
0
  6
Continuous
100
AcDbLine
 10
1836.09523
 20
1425.930301
 30
0.0
 11
1837.59523
 21
1425.930301
 31
0.0
  0
LINE
  5
58E
330
A
100
AcDbEntity
  8
0
  6
Continuous
100
AcDbLine
 10
1837.59523
 20
1434.430301
 30
0.0
 11
1831.09523
 21
1434.430301
 31
0.0
  0
LINE
  5
58F
330
A
100
AcDbEntity
  8
0
  6
Continuous
100
AcDbLine
 10
1831.09523
 20
1434.430301
 30
0.0
 11
1831.09523
 21
1437.430301
 31
0.0
  0
LINE
  5
590
330
A
100
AcDbEntity
  8
0
  6
Continuous
100
AcDbLine
 10
1831.09523
 20
1437.430301
 30
0.0
 11
1827.09523
 21
1437.430301
 31
0.0
  0
LINE
  5
591
330
A
100
AcDbEntity
  8
0
  6
Continuous
100
AcDbLine
 10
1827.09523
 20
1437.430301
 30
0.0
 11
1827.09523
 21
1435.930301
 31
0.0
  0
LINE
  5
592
330
A
100
AcDbEntity
  8
0
  6
Continuous
100
AcDbLine
 10
1827.09523
 20
1435.930301
 30
0.0
 11
1829.59523
 21
1435.930301
 31
0.0
  0
LINE
  5
593
330
A
100
AcDbEntity
  8
0
  6
Continuous
100
AcDbLine
 10
1829.59523
 20
1435.930301
 30
0.0
 11
1829.59523
 21
1428.930301
 31
0.0
  0
LINE
  5
594
330
A
100
AcDbEntity
  8
0
  6
Continuous
100
AcDbLine
 10
1829.59523
 20
1428.930301
 30
0.0
 11
1815.59523
 21
1428.930301
 31
0.0
  0
LINE
  5
595
330
A
100
AcDbEntity
  8
0
  6
Continuous
100
AcDbLine
 10
1815.59523
 20
1428.930301
 30
0.0
 11
1815.59523
 21
1435.930301
 31
0.0
  0
LINE
  5
596
330
A
100
AcDbEntity
  8
0
  6
Continuous
100
AcDbLine
 10
1815.59523
 20
1435.930301
 30
0.0
 11
1818.09523
 21
1435.930301
 31
0.0
  0
LINE
  5
597
330
A
100
AcDbEntity
  8
0
  6
Continuous
100
AcDbLine
 10
1818.09523
 20
1435.930301
 30
0.0
 11
1818.09523
 21
1437.430301
 31
0.0
  0
LINE
  5
598
330
A
100
AcDbEntity
  8
0
  6
Continuous
100
AcDbLine
 10
1818.09523
 20
1437.430301
 30
0.0
 11
1814.09523
 21
1437.430301
 31
0.0
  0
LINE
  5
599
330
A
100
AcDbEntity
  8
0
  6
Continuous
100
AcDbLine
 10
1814.09523
 20
1437.430301
 30
0.0
 11
1814.09523
 21
1434.430301
 31
0.0
  0
LINE
  5
59A
330
A
100
AcDbEntity
  8
0
  6
Continuous
100
AcDbLine
 10
1814.09523
 20
1434.430301
 30
0.0
 11
1807.59523
 21
1434.430301
 31
0.0
  0
LINE
  5
59B
330
A
100
AcDbEntity
  8
0
  6
Continuous
100
AcDbLine
 10
1807.59523
 20
1434.430301
 30
0.0
 11
1807.59523
 21
1425.930301
 31
0.0
  0
LINE
  5
59C
330
A
100
AcDbEntity
  8
0
  6
Continuous
100
AcDbLine
 10
1807.59523
 20
1425.930301
 30
0.0
 11
1809.09523
 21
1425.930301
 31
0.0
  0
LINE
  5
59D
330
A
100
AcDbEntity
  8
0
  6
Continuous
100
AcDbLine
 10
1809.09523
 20
1425.930301
 30
0.0
 11
1809.09523
 21
1432.930301
 31
0.0
  0
LINE
  5
59E
330
A
100
AcDbEntity
  8
0
  6
Continuous
100
AcDbLine
 10
1809.09523
 20
1432.930301
 30
0.0
 11
1814.09523
 21
1432.930301
 31
0.0
  0
LINE
  5
59F
330
A
100
AcDbEntity
  8
0
  6
Continuous
100
AcDbLine
 10
1814.09523
 20
1432.930301
 30
0.0
 11
1814.09523
 21
1411.930301
 31
0.0
  0
LINE
  5
5A0
330
A
100
AcDbEntity
  8
0
  6
Continuous
100
AcDbLine
 10
1814.09523
 20
1411.930301
 30
0.0
 11
1809.09523
 21
1411.930301
 31
0.0
  0
LINE
  5
5A1
330
A
100
AcDbEntity
  8
0
  6
Continuous
100
AcDbLine
 10
1809.09523
 20
1411.930301
 30
0.0
 11
1809.09523
 21
1418.930301
 31
0.0
  0
LINE
  5
5A2
330
A
100
AcDbEntity
  8
0
  6
Continuous
100
AcDbLine
 10
1809.09523
 20
1418.930301
 30
0.0
 11
1807.59523
 21
1418.930301
 31
0.0
  0
LINE
  5
5A3
330
A
100
AcDbEntity
  8
0
  6
Continuous
100
AcDbLine
 10
1807.59523
 20
1418.930301
 30
0.0
 11
1807.59523
 21
1410.430301
 31
0.0
  0
LINE
  5
5A4
330
A
100
AcDbEntity
  8
0
  6
Continuous
100
AcDbLine
 10
1807.59523
 20
1410.430301
 30
0.0
 11
1814.09523
 21
1410.430301
 31
0.0
  0
LINE
  5
5A5
330
A
100
AcDbEntity
  8
0
  6
Continuous
100
AcDbLine
 10
1814.09523
 20
1410.430301
 30
0.0
 11
1814.09523
 21
1407.430301
 31
0.0
  0
LINE
  5
5A6
330
A
100
AcDbEntity
  8
0
  6
Continuous
100
AcDbLine
 10
1818.09523
 20
1407.430301
 30
0.0
 11
1818.09523
 21
1408.930301
 31
0.0
  0
LINE
  5
5A7
330
A
100
AcDbEntity
  8
0
  6
Continuous
100
AcDbLine
 10
1818.09523
 20
1408.930301
 30
0.0
 11
1815.59523
 21
1408.930301
 31
0.0
  0
LINE
  5
5A8
330
A
100
AcDbEntity
  8
0
  6
Continuous
100
AcDbLine
 10
1815.59523
 20
1408.930301
 30
0.0
 11
1815.59523
 21
1415.930301
 31
0.0
  0
LINE
  5
5A9
330
A
100
AcDbEntity
  8
0
  6
Continuous
100
AcDbLine
 10
1815.59523
 20
1415.930301
 30
0.0
 11
1829.59523
 21
1415.930301
 31
0.0
  0
LINE
  5
5AA
330
A
100
AcDbEntity
  8
0
  6
Continuous
100
AcDbLine
 10
1829.59523
 20
1415.930301
 30
0.0
 11
1829.59523
 21
1408.930301
 31
0.0
  0
LINE
  5
5AB
330
A
100
AcDbEntity
  8
0
  6
Continuous
100
AcDbLine
 10
1829.59523
 20
1408.930301
 30
0.0
 11
1827.09523
 21
1408.930301
 31
0.0
  0
LINE
  5
5AC
330
A
100
AcDbEntity
  8
0
  6
Continuous
100
AcDbLine
 10
1827.09523
 20
1408.930301
 30
0.0
 11
1827.09523
 21
1407.430301
 31
0.0
  0
LINE
  5
5AD
330
A
100
AcDbEntity
  8
0
  6
Continuous
100
AcDbLine
 10
1831.09523
 20
1407.430301
 30
0.0
 11
1831.09523
 21
1410.430301
 31
0.0
  0
LINE
  5
5AE
330
A
100
AcDbEntity
  8
0
  6
Continuous
100
AcDbLine
 10
1831.09523
 20
1410.430301
 30
0.0
 11
1837.59523
 21
1410.430301
 31
0.0
  0
LINE
  5
5AF
330
A
100
AcDbEntity
  8
0
  6
Continuous
100
AcDbLine
 10
1807.59523
 20
1410.430301
 30
0.0
 11
1807.59523
 21
1402.769771
 31
0.0
  0
LINE
  5
5B0
330
A
100
AcDbEntity
  8
0
  6
Continuous
100
AcDbLine
 10
1807.59523
 20
1397.026651
 30
0.0
 11
1807.59523
 21
927.109021
 31
0.0
  0
LINE
  5
5B1
330
A
100
AcDbEntity
  8
0
  6
Continuous
100
AcDbLine
 10
1827.09523
 20
927.2704710000001
 30
0.0
 11
1827.09523
 21
1396.865191
 31
0.0
  0
LINE
  5
5B2
330
A
100
AcDbEntity
  8
0
  6
Continuous
100
AcDbLine
 10
1818.09523
 20
1397.949241
 30
0.0
 11
1818.09523
 21
925.9327210000002
 31
0.0
  0
LINE
  5
5B3
330
A
100
AcDbEntity
  8
0
  6
Continuous
100
AcDbLine
 10
1814.09523
 20
926.3017509999999
 30
0.0
 11
1814.09523
 21
1397.580201
 31
0.0
  0
LINE
  5
5B4
330
A
100
AcDbEntity
  8
0
  6
Continuous
100
AcDbLine
 10
1814.09523
 20
1402.308471
 30
0.0
 11
1814.09523
 21
1406.230301
 31
0.0
  0
LINE
  5
5B5
330
A
100
AcDbEntity
  8
0
  6
Continuous
100
AcDbLine
 10
1818.09523
 20
1406.230301
 30
0.0
 11
1818.09523
 21
1401.893311
 31
0.0
  0
LINE
  5
5B6
330
A
100
AcDbEntity
  8
0
  6
Continuous
100
AcDbLine
 10
1827.09523
 20
1403.069611
 30
0.0
 11
1827.09523
 21
1406.230301
 31
0.0
  0
LINE
  5
5B7
330
A
100
AcDbEntity
  8
0
  6
Continuous
100
AcDbLine
 10
1831.09523
 20
1406.230301
 30
0.0
 11
1831.09523
 21
1403.115741
 31
0.0
  0
LINE
  5
5B8
330
A
100
AcDbEntity
  8
0
  6
Continuous
100
AcDbLine
 10
1831.09523
 20
1396.726811
 30
0.0
 11
1831.09523
 21
927.316601
 31
0.0
  0
LINE
  5
5B9
330
A
100
AcDbEntity
  8
0
  6
Continuous
100
AcDbLine
 10
1829.59523
 20
1427.130301
 30
0.0
 11
1829.59523
 21
1417.730301
 31
0.0
  0
LINE
  5
5BA
330
A
100
AcDbEntity
  8
0
  6
Continuous
100
AcDbLine
 10
1829.59523
 20
1417.730301
 30
0.0
 11
1815.59523
 21
1417.730301
 31
0.0
  0
LINE
  5
5BB
330
A
100
AcDbEntity
  8
0
  6
Continuous
100
AcDbLine
 10
1815.59523
 20
1417.730301
 30
0.0
 11
1815.59523
 21
1427.130301
 31
0.0
  0
LINE
  5
5BC
330
A
100
AcDbEntity
  8
0
  6
Continuous
100
AcDbLine
 10
1815.59523
 20
1427.130301
 30
0.0
 11
1829.59523
 21
1427.130301
 31
0.0
  0
LINE
  5
5BD
330
A
100
AcDbEntity
  8
0
  6
Continuous
100
AcDbLine
 10
1837.59523
 20
1410.430301
 30
0.0
 11
1837.59523
 21
1434.430301
 31
0.0
  0
LINE
  5
5BE
330
A
100
AcDbEntity
  8
0
  6
Continuous
100
AcDbLine
 10
1837.59523
 20
1434.430301
 30
0.0
 11
1847.59523
 21
1434.430301
 31
0.0
  0
LINE
  5
5BF
330
A
100
AcDbEntity
  8
0
  6
Continuous
100
AcDbLine
 10
1847.59523
 20
1434.430301
 30
0.0
 11
1847.59523
 21
1402.830301
 31
0.0
  0
LINE
  5
5C0
330
A
100
AcDbEntity
  8
0
  6
Continuous
100
AcDbLine
 10
1847.59523
 20
1402.830301
 30
0.0
 11
1834.09523
 21
1402.830301
 31
0.0
  0
LINE
  5
5C1
330
A
100
AcDbEntity
  8
0
  6
Continuous
100
AcDbLine
 10
1834.09523
 20
1404.430301
 30
0.0
 11
1845.99523
 21
1404.430301
 31
0.0
  0
LINE
  5
5C2
330
A
100
AcDbEntity
  8
0
  6
Continuous
100
AcDbLine
 10
1845.99523
 20
1404.430301
 30
0.0
 11
1845.99523
 21
1434.430301
 31
0.0
  0
LINE
  5
5C3
330
A
100
AcDbEntity
  8
0
  6
Continuous
100
AcDbLine
 10
1837.59523
 20
1410.430301
 30
0.0
 11
1845.99523
 21
1410.430301
 31
0.0
  0
LINE
  5
5C4
330
A
100
AcDbEntity
  8
0
  6
Continuous
100
AcDbLine
 10
1856.09523
 20
1435.930301
 30
0.0
 11
1858.34523
 21
1435.930301
 31
0.0
  0
LINE
  5
5C5
330
A
100
AcDbEntity
  8
0
  6
Continuous
100
AcDbLine
 10
1861.84523
 20
1435.930301
 30
0.0
 11
1864.09523
 21
1435.930301
 31
0.0
  0
LINE
  5
5C6
330
A
100
AcDbEntity
  8
0
  6
Continuous
100
AcDbLine
 10
1832.89523
 20
1401.630301
 30
0.0
 11
1832.89523
 21
1405.330301
 31
0.0
  0
LINE
  5
5C7
330
A
100
AcDbEntity
  8
0
  6
Continuous
100
AcDbLine
 10
1832.89523
 20
1405.330301
 30
0.0
 11
1834.09523
 21
1405.330301
 31
0.0
  0
LINE
  5
5C8
330
A
100
AcDbEntity
  8
0
  6
Continuous
100
AcDbLine
 10
1834.09523
 20
1405.330301
 30
0.0
 11
1834.09523
 21
1402.830301
 31
0.0
  0
LINE
  5
5C9
330
A
100
AcDbEntity
  8
0
  6
Continuous
100
AcDbLine
 10
1845.59523
 20
1402.830301
 30
0.0
 11
1845.59523
 21
1397.030301
 31
0.0
  0
LINE
  5
5CA
330
A
100
AcDbEntity
  8
0
  6
Continuous
100
AcDbLine
 10
1845.59523
 20
1397.030301
 30
0.0
 11
1841.23693
 21
1397.030301
 31
0.0
  0
LINE
  5
5CB
330
A
100
AcDbEntity
  8
0
  6
Continuous
100
AcDbLine
 10
1841.23693
 20
1397.030301
 30
0.0
 11
1835.35259
 21
1397.030301
 31
0.0
  0
LINE
  5
5CC
330
A
100
AcDbEntity
  8
0
  6
Continuous
100
AcDbLine
 10
1835.35259
 20
1397.030301
 30
0.0
 11
1835.35259
 21
1401.630301
 31
0.0
  0
LINE
  5
5CD
330
A
100
AcDbEntity
  8
0
  6
Continuous
100
AcDbLine
 10
1836.20112
 20
1401.630301
 30
0.0
 11
1836.20112
 21
1397.030301
 31
0.0
  0
LINE
  5
5CE
330
A
100
AcDbEntity
  8
0
  6
Continuous
100
AcDbLine
 10
1841.23693
 20
1397.030301
 30
0.0
 11
1841.23693
 21
1395.830301
 31
0.0
  0
LINE
  5
5CF
330
A
100
AcDbEntity
  8
0
  6
Continuous
100
AcDbLine
 10
1841.23693
 20
1395.830301
 30
0.0
 11
1852.79523
 21
1395.830301
 31
0.0
  0
LINE
  5
5D0
330
A
100
AcDbEntity
  8
0
  6
Continuous
100
AcDbLine
 10
1852.79523
 20
1395.830301
 30
0.0
 11
1852.79523
 21
1402.830301
 31
0.0
  0
LINE
  5
5D1
330
A
100
AcDbEntity
  8
0
  6
Continuous
100
AcDbLine
 10
1852.79523
 20
1402.830301
 30
0.0
 11
1851.59523
 21
1402.830301
 31
0.0
  0
LINE
  5
5D2
330
A
100
AcDbEntity
  8
0
  6
Continuous
100
AcDbLine
 10
1851.59523
 20
1402.830301
 30
0.0
 11
1851.59523
 21
1397.030301
 31
0.0
  0
LINE
  5
5D3
330
A
100
AcDbEntity
  8
0
  6
Continuous
100
AcDbLine
 10
1851.59523
 20
1397.030301
 30
0.0
 11
1845.59523
 21
1397.030301
 31
0.0
  0
LINE
  5
5D4
330
A
100
AcDbEntity
  8
0
  6
Continuous
100
AcDbLine
 10
1844.39523
 20
1401.630301
 30
0.0
 11
1832.89523
 21
1401.630301
 31
0.0
  0
LINE
  5
5D5
330
A
100
AcDbEntity
  8
0
  6
Continuous
100
AcDbLine
 10
1844.39523
 20
1395.830301
 30
0.0
 11
1844.39523
 21
1401.630301
 31
0.0
  0
LINE
  5
5D6
330
A
100
AcDbEntity
  8
0
  6
Continuous
100
AcDbLine
 10
1841.84523
 20
1401.630301
 30
0.0
 11
1841.84523
 21
1402.830301
 31
0.0
  0
LINE
  5
5D7
330
A
100
AcDbEntity
  8
0
  6
Continuous
100
AcDbLine
 10
1837.34523
 20
1402.830301
 30
0.0
 11
1837.34523
 21
1401.630301
 31
0.0
  0
LINE
  5
5D8
330
A
100
AcDbEntity
  8
0
  6
DIVIDE
100
AcDbLine
 10
1905.09523
 20
887.9303009999999
 30
0.0
 11
1905.09523
 21
1435.930301
 31
0.0
  0
LINE
  5
5D9
330
A
100
AcDbEntity
  8
0
  6
DIVIDE
100
AcDbLine
 10
1879.09523
 20
888.9903009999999
 30
0.0
 11
1902.84095
 21
885.946531
 31
0.0
  0
LINE
  5
5DA
330
A
100
AcDbEntity
  8
0
  6
DIVIDE
100
AcDbLine
 10
1879.09523
 20
898.4303009999999
 30
0.0
 11
1879.09523
 21
888.9903009999999
 31
0.0
  0
ARC
  5
5DB
330
A
100
AcDbEntity
  8
0
  6
DIVIDE
100
AcDbCircle
 10
1878.59523
 20
898.4303009999999
 30
0.0
 40
0.5
100
AcDbArc
 50
0.0
 51
90.0
  0
LINE
  5
5DC
330
A
100
AcDbEntity
  8
0
  6
DIVIDE
100
AcDbLine
 10
1866.59523
 20
898.930301
 30
0.0
 11
1878.59523
 21
898.930301
 31
0.0
  0
ARC
  5
5DD
330
A
100
AcDbEntity
  8
0
  6
DIVIDE
100
AcDbCircle
 10
1903.09523
 20
887.9303009999999
 30
0.0
 40
2.0
100
AcDbArc
 50
262.69555
 51
0.0
  0
LINE
  5
5DE
330
A
100
AcDbEntity
  8
0
  6
DIVIDE
100
AcDbLine
 10
1866.59523
 20
1424.930301
 30
0.0
 11
1878.59523
 21
1424.930301
 31
0.0
  0
ARC
  5
5DF
330
A
100
AcDbEntity
  8
0
  6
DIVIDE
100
AcDbCircle
 10
1878.59523
 20
1425.430301
 30
0.0
 40
0.5
100
AcDbArc
 50
270.0
 51
0.0
  0
LINE
  5
5E0
330
A
100
AcDbEntity
  8
0
  6
DIVIDE
100
AcDbLine
 10
1879.09523
 20
1425.430301
 30
0.0
 11
1879.09523
 21
1434.870301
 31
0.0
  0
LINE
  5
5E1
330
A
100
AcDbEntity
  8
0
  6
DIVIDE
100
AcDbLine
 10
1879.09523
 20
1434.870301
 30
0.0
 11
1902.84095
 21
1437.914071
 31
0.0
  0
ARC
  5
5E2
330
A
100
AcDbEntity
  8
0
  6
DIVIDE
100
AcDbCircle
 10
1903.09523
 20
1435.930301
 30
0.0
 40
2.0
100
AcDbArc
 50
0.0
 51
97.304446
  0
LINE
  5
5E3
330
A
100
AcDbEntity
  8
0
  6
DASHDOT
100
AcDbLine
 10
1872.59523
 20
908.2814309999999
 30
0.0
 11
1872.59523
 21
890.6689810000001
 31
0.0
  0
LINE
  5
5E4
330
A
100
AcDbEntity
  8
0
  6
DASHDOT
100
AcDbLine
 10
1846.49523
 20
920.5082009999999
 30
0.0
 11
1846.49523
 21
927.3734109999999
 31
0.0
  0
LINE
  5
5E5
330
A
100
AcDbEntity
  8
0
  6
DASHDOT
100
AcDbLine
 10
1839.59523
 20
924.3523109999999
 30
0.0
 11
1839.59523
 21
917.377751
 31
0.0
  0
LINE
  5
5E6
330
A
100
AcDbEntity
  8
0
  6
DASHDOT
100
AcDbLine
 10
1846.49523
 20
925.7303009999999
 30
0.0
 11
1769.17974
 21
919.165781
 31
0.0
  0
LINE
  5
5E7
330
A
100
AcDbEntity
  8
0
  6
DASHDOT
100
AcDbLine
 10
1769.17974
 20
928.694821
 30
0.0
 11
1846.49523
 21
922.1303009999999
 31
0.0
  0
LINE
  5
5E8
330
A
100
AcDbEntity
  8
0
  6
DASHDOT
100
AcDbLine
 10
1772.39093
 20
926.237461
 30
0.0
 11
1772.75629
 21
930.5406009999998
 31
0.0
  0
LINE
  5
5E9
330
A
100
AcDbEntity
  8
0
  6
DASHDOT
100
AcDbLine
 10
1772.75629
 20
917.320001
 30
0.0
 11
1772.39093
 21
921.623141
 31
0.0
  0
LINE
  5
5EA
330
A
100
AcDbEntity
  8
0
  6
DASHDOT
100
AcDbLine
 10
1825.29523
 20
927.3734109999999
 30
0.0
 11
1825.29523
 21
920.5082009999999
 31
0.0
  0
LINE
  5
5EB
330
A
100
AcDbEntity
  8
0
  6
DASHDOT
100
AcDbLine
 10
1822.59523
 20
927.3734109999999
 30
0.0
 11
1822.59523
 21
880.6569210000001
 31
0.0
  0
LINE
  5
5EC
330
A
100
AcDbEntity
  8
0
  6
DASHDOT
100
AcDbLine
 10
1846.49523
 20
1401.730301
 30
0.0
 11
1769.17974
 21
1395.165781
 31
0.0
  0
LINE
  5
5ED
330
A
100
AcDbEntity
  8
0
  6
DASHDOT
100
AcDbLine
 10
1772.75629
 20
1393.320001
 30
0.0
 11
1772.39093
 21
1397.623141
 31
0.0
  0
LINE
  5
5EE
330
A
100
AcDbEntity
  8
0
  6
DASHDOT
100
AcDbLine
 10
1769.17974
 20
1404.694821
 30
0.0
 11
1846.49523
 21
1398.130301
 31
0.0
  0
LINE
  5
5EF
330
A
100
AcDbEntity
  8
0
  6
DASHDOT
100
AcDbLine
 10
1772.39093
 20
1402.237461
 30
0.0
 11
1772.75629
 21
1406.540601
 31
0.0
  0
LINE
  5
5F0
330
A
100
AcDbEntity
  8
0
  6
DASHDOT
100
AcDbLine
 10
1825.29523
 20
1403.352401
 30
0.0
 11
1825.29523
 21
1396.487191
 31
0.0
  0
LINE
  5
5F1
330
A
100
AcDbEntity
  8
0
  6
DASHDOT
100
AcDbLine
 10
1846.49523
 20
1396.487191
 30
0.0
 11
1846.49523
 21
1403.352401
 31
0.0
  0
LINE
  5
5F2
330
A
100
AcDbEntity
  8
0
  6
DASHDOT
100
AcDbLine
 10
1839.59523
 20
1406.482851
 30
0.0
 11
1839.59523
 21
1399.508291
 31
0.0
  0
LINE
  5
5F3
330
A
100
AcDbEntity
  8
0
  6
DASHDOT
100
AcDbLine
 10
1872.59523
 20
1415.579171
 30
0.0
 11
1872.59523
 21
1433.191621
 31
0.0
  0
LINE
  5
5F4
330
A
100
AcDbEntity
  8
0
  6
DASHDOT
100
AcDbLine
 10
1822.59523
 20
1396.487191
 30
0.0
 11
1822.59523
 21
1443.203681
 31
0.0
  0
LINE
  5
5F5
330
A
100
AcDbEntity
  8
0
  6
DASHDOT
100
AcDbLine
 10
1821.22402
 20
1401.730301
 30
0.0
 11
1847.95
 21
1401.730301
 31
0.0
  0
LINE
  5
5F6
330
A
100
AcDbEntity
  8
0
  6
DASHDOT
100
AcDbLine
 10
1847.95
 20
1398.130301
 30
0.0
 11
1821.22402
 21
1398.130301
 31
0.0
  0
LINE
  5
5F7
330
A
100
AcDbEntity
  8
0
  6
DASHDOT
100
AcDbLine
 10
1847.95
 20
925.7303009999999
 30
0.0
 11
1821.22402
 21
925.7303009999999
 31
0.0
  0
LINE
  5
5F8
330
A
100
AcDbEntity
  8
0
  6
DASHDOT
100
AcDbLine
 10
1821.22402
 20
922.1303009999999
 30
0.0
 11
1847.95
 21
922.1303009999999
 31
0.0
  0
LINE
  5
5F9
330
A
100
AcDbEntity
  8
0
  6
Continuous
100
AcDbLine
 10
1857.4595
 20
880.147731
 30
0.0
 11
1855.4338
 21
877.2144310000001
 31
0.0
  0
LINE
  5
5FA
330
A
100
AcDbEntity
  8
0
  6
Continuous
100
AcDbLine
 10
1856.17123
 20
876.551191
 30
0.0
 11
1860.10522
 21
879.9340609999999
 31
0.0
  0
ARC
  5
5FB
330
A
100
AcDbEntity
  8
0
  6
Continuous
100
AcDbCircle
 10
1856.84523
 20
883.7251609999999
 30
0.0
 40
5.0
100
AcDbArc
 50
310.69245
 51
0.0
  0
ARC
  5
5FC
330
A
100
AcDbEntity
  8
0
  6
Continuous
100
AcDbCircle
 10
1853.34523
 20
882.988991
 30
0.0
 40
5.0
100
AcDbArc
 50
325.37155
 51
0.0
  0
ARC
  5
5FD
330
A
100
AcDbEntity
  8
0
  6
Continuous
100
AcDbCircle
 10
1855.84523
 20
876.9303009999999
 30
0.0
 40
0.5
100
AcDbArc
 50
145.37155
 51
310.69243
  0
LINE
  5
5FE
330
A
100
AcDbEntity
  8
0
  6
Continuous
100
AcDbLine
 10
1858.34523
 20
887.9303009999999
 30
0.0
 11
1858.34523
 21
882.988991
 31
0.0
  0
LINE
  5
5FF
330
A
100
AcDbEntity
  8
0
  6
Continuous
100
AcDbLine
 10
1861.84523
 20
883.7251609999999
 30
0.0
 11
1861.84523
 21
887.9303009999999
 31
0.0
  0
LINE
  5
600
330
A
100
AcDbEntity
  8
0
  6
Continuous
100
AcDbLine
 10
1864.09523
 20
891.4303009999999
 30
0.0
 11
1856.09523
 21
891.4303009999999
 31
0.0
  0
LINE
  5
601
330
A
100
AcDbEntity
  8
0
  6
Continuous
100
AcDbLine
 10
1857.4595
 20
1443.712871
 30
0.0
 11
1855.4338
 21
1446.646171
 31
0.0
  0
LINE
  5
602
330
A
100
AcDbEntity
  8
0
  6
Continuous
100
AcDbLine
 10
1856.17123
 20
1447.309411
 30
0.0
 11
1860.10522
 21
1443.926541
 31
0.0
  0
ARC
  5
603
330
A
100
AcDbEntity
  8
0
  6
Continuous
100
AcDbCircle
 10
1856.84523
 20
1440.135441
 30
0.0
 40
5.0
100
AcDbArc
 50
0.0
 51
49.307549
  0
ARC
  5
604
330
A
100
AcDbEntity
  8
0
  6
Continuous
100
AcDbCircle
 10
1853.34523
 20
1440.871611
 30
0.0
 40
5.0
100
AcDbArc
 50
0.0
 51
34.62845
  0
ARC
  5
605
330
A
100
AcDbEntity
  8
0
  6
Continuous
100
AcDbCircle
 10
1855.84523
 20
1446.930301
 30
0.0
 40
0.5
100
AcDbArc
 50
49.30757
 51
214.62845
  0
LINE
  5
606
330
A
100
AcDbEntity
  8
0
  6
Continuous
100
AcDbLine
 10
1861.84523
 20
1440.135441
 30
0.0
 11
1861.84523
 21
1435.930301
 31
0.0
  0
LINE
  5
607
330
A
100
AcDbEntity
  8
0
  6
Continuous
100
AcDbLine
 10
1858.34523
 20
1435.930301
 30
0.0
 11
1858.34523
 21
1440.871611
 31
0.0
  0
LINE
  5
608
330
A
100
AcDbEntity
  8
0
  6
Continuous
100
AcDbLine
 10
1864.09523
 20
1432.430301
 30
0.0
 11
1856.09523
 21
1432.430301
 31
0.0
  0
LINE
  5
609
330
A
100
AcDbEntity
  8
0
  6
DOT
100
AcDbLine
 10
1839.19523
 20
889.4303009999999
 30
0.0
 11
1839.19523
 21
913.430301
 31
0.0
  0
LINE
  5
60A
330
A
100
AcDbEntity
  8
0
  6
DOT
100
AcDbLine
 10
1839.19523
 20
1410.430301
 30
0.0
 11
1839.19523
 21
1434.430301
 31
0.0
  0
LINE
  5
60B
330
A
100
AcDbEntity
  8
0
  6
DASHDOT
100
AcDbLine
 10
1861.84523
 20
1422.430301
 30
0.0
 11
1799.12937
 21
1422.430301
 31
0.0
  0
LINE
  5
60C
330
A
100
AcDbEntity
  8
0
  6
DASHDOT
100
AcDbLine
 10
1861.84523
 20
901.430301
 30
0.0
 11
1799.12937
 21
901.430301
 31
0.0
  0
LINE
  5
60D
330
A
100
AcDbEntity
  8
0
  6
DIVIDE
100
AcDbLine
 10
1903.09523
 20
887.9303009999999
 30
0.0
 11
1904.59523
 21
887.9303009999999
 31
0.0
  0
LINE
  5
60E
330
A
100
AcDbEntity
  8
0
  6
DIVIDE
100
AcDbLine
 10
491.5
 20
458.699319
 30
0.0
 11
491.5
 21
457.199319
 31
0.0
  0
LINE
  5
60F
330
A
100
AcDbEntity
  8
0
  6
Continuous
100
AcDbLine
 10
517.0
 20
554.19931
 30
0.0
 11
582.982961
 21
554.19931
 31
0.0
  0
LINE
  5
610
330
A
100
AcDbEntity
  8
0
  6
Continuous
100
AcDbLine
 10
520.0
 20
547.6993099999999
 30
0.0
 11
594.241292
 21
547.6993099999999
 31
0.0
  0
LINE
  5
611
330
A
100
AcDbEntity
  8
0
  6
Continuous
100
AcDbLine
 10
601.1694949999999
 20
543.6993099999999
 30
0.0
 11
520.0
 21
543.6993099999999
 31
0.0
  0
LINE
  5
612
330
A
100
AcDbEntity
  8
0
  6
Continuous
100
AcDbLine
 10
520.0
 20
534.6993099999999
 30
0.0
 11
616.757953
 21
534.6993099999999
 31
0.0
  0
LINE
  5
613
330
A
100
AcDbEntity
  8
0
  6
Continuous
100
AcDbLine
 10
625.0
 20
529.9407620000001
 30
0.0
 11
625.0
 21
524.19931
 31
0.0
  0
LINE
  5
614
330
A
100
AcDbEntity
  8
0
  6
Continuous
100
AcDbLine
 10
623.686157
 20
530.6993099999999
 30
0.0
 11
520.0
 21
530.6993099999999
 31
0.0
  0
LINE
  5
615
330
A
100
AcDbEntity
  8
0
  6
Continuous
100
AcDbLine
 10
625.0
 20
549.19931
 30
0.0
 11
625.0
 21
532.019221
 31
0.0
  0
LINE
  5
616
330
A
100
AcDbEntity
  8
0
  6
Continuous
100
AcDbLine
 10
640.0
 20
525.39931
 30
0.0
 11
636.4660219999999
 21
525.39931
 31
0.0
  0
LINE
  5
617
330
A
100
AcDbEntity
  8
0
  6
DASHED
100
AcDbLine
 10
635.0
 20
524.19931
 30
0.0
 11
635.0
 21
522.1993099999999
 31
0.0
  0
LINE
  5
618
330
A
100
AcDbEntity
  8
0
  6
Continuous
100
AcDbLine
 10
632.866026
 20
525.39931
 30
0.0
 11
625.0
 21
525.39931
 31
0.0
  0
LINE
  5
619
330
A
100
AcDbEntity
  8
0
  6
Continuous
100
AcDbLine
 10
636.6
 20
523.243499
 30
0.0
 11
636.6
 21
515.7993099999999
 31
0.0
  0
LINE
  5
61A
330
A
100
AcDbEntity
  8
0
  6
Continuous
100
AcDbLine
 10
638.408589
 20
522.1993099999999
 30
0.0
 11
633.8
 21
522.1993099999999
 31
0.0
  0
LINE
  5
61B
330
A
100
AcDbEntity
  8
0
  6
Continuous
100
AcDbLine
 10
640.0
 20
524.19931
 30
0.0
 11
640.0
 21
523.3589669999999
 31
0.0
  0
LINE
  5
61C
330
A
100
AcDbEntity
  8
0
  6
Continuous
100
AcDbLine
 10
586.5829589999999
 20
554.19931
 30
0.0
 11
723.4170370000001
 21
554.19931
 31
0.0
  0
LINE
  5
61D
330
A
100
AcDbEntity
  8
0
  6
Continuous
100
AcDbLine
 10
685.0
 20
529.9407629999999
 30
0.0
 11
685.0
 21
524.19931
 31
0.0
  0
LINE
  5
61E
330
A
100
AcDbEntity
  8
0
  6
Continuous
100
AcDbLine
 10
685.0
 20
549.19931
 30
0.0
 11
685.0
 21
532.019222
 31
0.0
  0
LINE
  5
61F
330
A
100
AcDbEntity
  8
0
  6
DASHED
100
AcDbLine
 10
675.0
 20
524.19931
 30
0.0
 11
675.0
 21
522.1993099999999
 31
0.0
  0
LINE
  5
620
330
A
100
AcDbEntity
  8
0
  6
Continuous
100
AcDbLine
 10
677.1339730000001
 20
525.39931
 30
0.0
 11
685.0
 21
525.39931
 31
0.0
  0
LINE
  5
621
330
A
100
AcDbEntity
  8
0
  6
Continuous
100
AcDbLine
 10
670.0
 20
525.39931
 30
0.0
 11
673.5339769999999
 21
525.39931
 31
0.0
  0
LINE
  5
622
330
A
100
AcDbEntity
  8
0
  6
Continuous
100
AcDbLine
 10
673.3999999999999
 20
515.7993099999999
 30
0.0
 11
673.3999999999999
 21
523.2435
 31
0.0
  0
LINE
  5
623
330
A
100
AcDbEntity
  8
0
  6
Continuous
100
AcDbLine
 10
671.4555159999999
 20
524.19931
 30
0.0
 11
638.5444829999999
 21
524.19931
 31
0.0
  0
LINE
  5
624
330
A
100
AcDbEntity
  8
0
  6
Continuous
100
AcDbLine
 10
676.2
 20
522.1993099999999
 30
0.0
 11
671.5914099999999
 21
522.1993099999999
 31
0.0
  0
LINE
  5
625
330
A
100
AcDbEntity
  8
0
  6
Continuous
100
AcDbLine
 10
670.0
 20
523.3589669999999
 30
0.0
 11
670.0
 21
524.19931
 31
0.0
  0
LINE
  5
626
330
A
100
AcDbEntity
  8
0
  6
Continuous
100
AcDbLine
 10
625.0
 20
543.6993099999999
 30
0.0
 11
604.769493
 21
543.6993099999999
 31
0.0
  0
LINE
  5
627
330
A
100
AcDbEntity
  8
0
  6
Continuous
100
AcDbLine
 10
620.35795
 20
534.6993099999999
 30
0.0
 11
625.0
 21
534.6993099999999
 31
0.0
  0
LINE
  5
628
330
A
100
AcDbEntity
  8
0
  6
Continuous
100
AcDbLine
 10
635.0
 20
524.19931
 30
0.0
 11
633.8
 21
524.19931
 31
0.0
  0
LINE
  5
629
330
A
100
AcDbEntity
  8
0
  6
Continuous
100
AcDbLine
 10
625.0
 20
524.19931
 30
0.0
 11
517.0
 21
524.19931
 31
0.0
  0
LINE
  5
62A
330
A
100
AcDbEntity
  8
0
  6
Continuous
100
AcDbLine
 10
685.0
 20
534.6993099999999
 30
0.0
 11
689.642048
 21
534.6993099999999
 31
0.0
  0
LINE
  5
62B
330
A
100
AcDbEntity
  8
0
  6
Continuous
100
AcDbLine
 10
705.230504
 20
543.6993099999999
 30
0.0
 11
685.0
 21
543.6993099999999
 31
0.0
  0
LINE
  5
62C
330
A
100
AcDbEntity
  8
0
  6
Continuous
100
AcDbLine
 10
669.037262
 20
525.89931
 30
0.0
 11
640.9627379999999
 21
525.89931
 31
0.0
  0
CIRCLE
  5
62D
330
A
100
AcDbEntity
  8
0
  6
DASHDOT
100
AcDbCircle
 10
655.0
 20
525.89931
 30
0.0
 40
10.6
  0
LINE
  5
62E
330
A
100
AcDbEntity
  8
0
  6
Continuous
100
AcDbLine
 10
685.0
 20
547.6993099999999
 30
0.0
 11
712.158707
 21
547.6993099999999
 31
0.0
  0
LINE
  5
62F
330
A
100
AcDbEntity
  8
0
  6
Continuous
100
AcDbLine
 10
597.8412889999999
 20
547.6993099999999
 30
0.0
 11
625.0
 21
547.6993099999999
 31
0.0
  0
LINE
  5
630
330
A
100
AcDbEntity
  8
0
  6
DOT
100
AcDbLine
 10
625.0
 20
547.6993099999999
 30
0.0
 11
685.0
 21
547.6993099999999
 31
0.0
  0
LINE
  5
631
330
A
100
AcDbEntity
  8
0
  6
Continuous
100
AcDbLine
 10
727.0170349999999
 20
554.19931
 30
0.0
 11
1352.982951
 21
554.19931
 31
0.0
  0
LINE
  5
632
330
A
100
AcDbEntity
  8
0
  6
Continuous
100
AcDbLine
 10
715.758705
 20
547.6993099999999
 30
0.0
 11
1364.241282
 21
547.6993099999999
 31
0.0
  0
LINE
  5
633
330
A
100
AcDbEntity
  8
0
  6
Continuous
100
AcDbLine
 10
1371.169485
 20
543.6993099999999
 30
0.0
 11
708.8305019999999
 21
543.6993099999999
 31
0.0
  0
LINE
  5
634
330
A
100
AcDbEntity
  8
0
  6
Continuous
100
AcDbLine
 10
1394.99999
 20
543.6993099999999
 30
0.0
 11
1374.769483
 21
543.6993099999999
 31
0.0
  0
LINE
  5
635
330
A
100
AcDbEntity
  8
0
  6
Continuous
100
AcDbLine
 10
693.2420449999999
 20
534.6993099999999
 30
0.0
 11
1386.757943
 21
534.6993099999999
 31
0.0
  0
LINE
  5
636
330
A
100
AcDbEntity
  8
0
  6
Continuous
100
AcDbLine
 10
1390.35794
 20
534.6993099999999
 30
0.0
 11
1394.99999
 21
534.6993099999999
 31
0.0
  0
LINE
  5
637
330
A
100
AcDbEntity
  8
0
  6
Continuous
100
AcDbLine
 10
1394.99999
 20
532.019221
 30
0.0
 11
1394.99999
 21
549.19931
 31
0.0
  0
LINE
  5
638
330
A
100
AcDbEntity
  8
0
  6
Continuous
100
AcDbLine
 10
1393.686147
 20
530.6993099999999
 30
0.0
 11
686.313842
 21
530.6993099999999
 31
0.0
  0
LINE
  5
639
330
A
100
AcDbEntity
  8
0
  6
Continuous
100
AcDbLine
 10
1394.99999
 20
524.19931
 30
0.0
 11
1394.99999
 21
529.9407620000001
 31
0.0
  0
LINE
  5
63A
330
A
100
AcDbEntity
  8
0
  6
Continuous
100
AcDbLine
 10
1409.99999
 20
525.39931
 30
0.0
 11
1406.466012
 21
525.39931
 31
0.0
  0
LINE
  5
63B
330
A
100
AcDbEntity
  8
0
  6
Continuous
100
AcDbLine
 10
1402.866016
 20
525.39931
 30
0.0
 11
1394.99999
 21
525.39931
 31
0.0
  0
LINE
  5
63C
330
A
100
AcDbEntity
  8
0
  6
DASHED
100
AcDbLine
 10
1404.99999
 20
524.19931
 30
0.0
 11
1404.99999
 21
522.1993099999999
 31
0.0
  0
LINE
  5
63D
330
A
100
AcDbEntity
  8
0
  6
Continuous
100
AcDbLine
 10
1406.59999
 20
515.7993099999999
 30
0.0
 11
1406.59999
 21
523.243499
 31
0.0
  0
LINE
  5
63E
330
A
100
AcDbEntity
  8
0
  6
Continuous
100
AcDbLine
 10
1408.408579
 20
522.1993099999999
 30
0.0
 11
1403.79999
 21
522.1993099999999
 31
0.0
  0
LINE
  5
63F
330
A
100
AcDbEntity
  8
0
  6
Continuous
100
AcDbLine
 10
1409.99999
 20
524.19931
 30
0.0
 11
1409.99999
 21
523.3589669999999
 31
0.0
  0
LINE
  5
640
330
A
100
AcDbEntity
  8
0
  6
Continuous
100
AcDbLine
 10
1439.037252
 20
525.89931
 30
0.0
 11
1410.962728
 21
525.89931
 31
0.0
  0
LINE
  5
641
330
A
100
AcDbEntity
  8
0
  6
Continuous
100
AcDbLine
 10
1497.017029
 20
554.19931
 30
0.0
 11
1562.99999
 21
554.19931
 31
0.0
  0
LINE
  5
642
330
A
100
AcDbEntity
  8
0
  6
Continuous
100
AcDbLine
 10
1356.582949
 20
554.19931
 30
0.0
 11
1493.417031
 21
554.19931
 31
0.0
  0
LINE
  5
643
330
A
100
AcDbEntity
  8
0
  6
Continuous
100
AcDbLine
 10
1485.758698
 20
547.6993099999999
 30
0.0
 11
1559.99999
 21
547.6993099999999
 31
0.0
  0
LINE
  5
644
330
A
100
AcDbEntity
  8
0
  6
Continuous
100
AcDbLine
 10
1559.99999
 20
543.6993099999999
 30
0.0
 11
1478.830495
 21
543.6993099999999
 31
0.0
  0
LINE
  5
645
330
A
100
AcDbEntity
  8
0
  6
Continuous
100
AcDbLine
 10
1463.242037
 20
534.6993099999999
 30
0.0
 11
1559.99999
 21
534.6993099999999
 31
0.0
  0
LINE
  5
646
330
A
100
AcDbEntity
  8
0
  6
Continuous
100
AcDbLine
 10
1559.99999
 20
530.6993099999999
 30
0.0
 11
1456.313833
 21
530.6993099999999
 31
0.0
  0
LINE
  5
647
330
A
100
AcDbEntity
  8
0
  6
Continuous
100
AcDbLine
 10
1454.99999
 20
529.9407620000001
 30
0.0
 11
1454.99999
 21
524.19931
 31
0.0
  0
LINE
  5
648
330
A
100
AcDbEntity
  8
0
  6
Continuous
100
AcDbLine
 10
1454.99999
 20
549.19931
 30
0.0
 11
1454.99999
 21
532.019221
 31
0.0
  0
LINE
  5
649
330
A
100
AcDbEntity
  8
0
  6
Continuous
100
AcDbLine
 10
1447.133964
 20
525.39931
 30
0.0
 11
1454.99999
 21
525.39931
 31
0.0
  0
LINE
  5
64A
330
A
100
AcDbEntity
  8
0
  6
DASHED
100
AcDbLine
 10
1444.99999
 20
524.19931
 30
0.0
 11
1444.99999
 21
522.1993099999999
 31
0.0
  0
LINE
  5
64B
330
A
100
AcDbEntity
  8
0
  6
Continuous
100
AcDbLine
 10
1439.99999
 20
525.39931
 30
0.0
 11
1443.533968
 21
525.39931
 31
0.0
  0
LINE
  5
64C
330
A
100
AcDbEntity
  8
0
  6
Continuous
100
AcDbLine
 10
1443.39999
 20
523.243499
 30
0.0
 11
1443.39999
 21
515.7993099999999
 31
0.0
  0
LINE
  5
64D
330
A
100
AcDbEntity
  8
0
  6
Continuous
100
AcDbLine
 10
1441.455507
 20
524.19931
 30
0.0
 11
1408.544473
 21
524.19931
 31
0.0
  0
LINE
  5
64E
330
A
100
AcDbEntity
  8
0
  6
Continuous
100
AcDbLine
 10
1446.19999
 20
522.1993099999999
 30
0.0
 11
1441.591401
 21
522.1993099999999
 31
0.0
  0
LINE
  5
64F
330
A
100
AcDbEntity
  8
0
  6
Continuous
100
AcDbLine
 10
1439.99999
 20
523.3589669999999
 30
0.0
 11
1439.99999
 21
524.19931
 31
0.0
  0
CIRCLE
  5
650
330
A
100
AcDbEntity
  8
0
  6
DASHDOT
100
AcDbCircle
 10
1424.99999
 20
525.89931
 30
0.0
 40
10.6
  0
LINE
  5
651
330
A
100
AcDbEntity
  8
0
  6
Continuous
100
AcDbLine
 10
1475.230497
 20
543.6993099999999
 30
0.0
 11
1454.99999
 21
543.6993099999999
 31
0.0
  0
LINE
  5
652
330
A
100
AcDbEntity
  8
0
  6
Continuous
100
AcDbLine
 10
1454.99999
 20
534.6993099999999
 30
0.0
 11
1459.64204
 21
534.6993099999999
 31
0.0
  0
LINE
  5
653
330
A
100
AcDbEntity
  8
0
  6
Continuous
100
AcDbLine
 10
1404.99999
 20
524.19931
 30
0.0
 11
1403.79999
 21
524.19931
 31
0.0
  0
LINE
  5
654
330
A
100
AcDbEntity
  8
0
  6
Continuous
100
AcDbLine
 10
1394.99999
 20
524.19931
 30
0.0
 11
685.0
 21
524.19931
 31
0.0
  0
LINE
  5
655
330
A
100
AcDbEntity
  8
0
  6
Continuous
100
AcDbLine
 10
1562.49999
 20
524.19931
 30
0.0
 11
1454.99999
 21
524.19931
 31
0.0
  0
LINE
  5
656
330
A
100
AcDbEntity
  8
0
  6
Continuous
100
AcDbLine
 10
1446.19999
 20
524.19931
 30
0.0
 11
1444.99999
 21
524.19931
 31
0.0
  0
LINE
  5
657
330
A
100
AcDbEntity
  8
0
  6
Continuous
100
AcDbLine
 10
1367.841279
 20
547.6993099999999
 30
0.0
 11
1394.99999
 21
547.6993099999999
 31
0.0
  0
LINE
  5
658
330
A
100
AcDbEntity
  8
0
  6
Continuous
100
AcDbLine
 10
1454.99999
 20
547.6993099999999
 30
0.0
 11
1482.158701
 21
547.6993099999999
 31
0.0
  0
LINE
  5
659
330
A
100
AcDbEntity
  8
0
  6
DOT
100
AcDbLine
 10
1394.99999
 20
547.6993099999999
 30
0.0
 11
1454.99999
 21
547.6993099999999
 31
0.0
  0
LINE
  5
65A
330
A
100
AcDbEntity
  8
0
  6
DASHDOT
100
AcDbLine
 10
1416.60872
 20
522.1993099999999
 30
0.0
 11
1433.31861
 21
522.1993099999999
 31
0.0
  0
LINE
  5
65B
330
A
100
AcDbEntity
  8
0
  6
DOT
100
AcDbLine
 10
637.5
 20
920.2303009999999
 30
0.0
 11
640.0
 21
920.2303009999999
 31
0.0
  0
ARC
  5
65C
330
A
100
AcDbEntity
  8
0
  6
DOT
100
AcDbCircle
 10
637.5
 20
923.930301
 30
0.0
 40
3.7
100
AcDbArc
 50
180.0
 51
270.0
  0
ARC
  5
65D
330
A
100
AcDbEntity
  8
0
  6
DOT
100
AcDbCircle
 10
637.5
 20
923.930301
 30
0.0
 40
3.7
100
AcDbArc
 50
90.0
 51
180.0
  0
LINE
  5
65E
330
A
100
AcDbEntity
  8
0
  6
DOT
100
AcDbLine
 10
637.5
 20
927.6303010000001
 30
0.0
 11
640.0
 21
927.6303010000001
 31
0.0
  0
LINE
  5
65F
330
A
100
AcDbEntity
  8
0
  6
DOT
100
AcDbLine
 10
672.5
 20
927.6303010000001
 30
0.0
 11
670.0
 21
927.6303010000001
 31
0.0
  0
ARC
  5
660
330
A
100
AcDbEntity
  8
0
  6
DOT
100
AcDbCircle
 10
672.5
 20
923.930301
 30
0.0
 40
3.7
100
AcDbArc
 50
0.0
 51
90.0
  0
ARC
  5
661
330
A
100
AcDbEntity
  8
0
  6
DOT
100
AcDbCircle
 10
672.5
 20
923.930301
 30
0.0
 40
3.7
100
AcDbArc
 50
270.0
 51
0.0
  0
LINE
  5
662
330
A
100
AcDbEntity
  8
0
  6
DOT
100
AcDbLine
 10
670.0
 20
920.2303009999999
 30
0.0
 11
672.5
 21
920.2303009999999
 31
0.0
  0
LINE
  5
663
330
A
100
AcDbEntity
  8
0
  6
DOT
100
AcDbLine
 10
1407.49999
 20
920.2303009999999
 30
0.0
 11
1409.99999
 21
920.2303009999999
 31
0.0
  0
ARC
  5
664
330
A
100
AcDbEntity
  8
0
  6
DOT
100
AcDbCircle
 10
1407.49999
 20
923.930301
 30
0.0
 40
3.7
100
AcDbArc
 50
180.0
 51
270.0
  0
ARC
  5
665
330
A
100
AcDbEntity
  8
0
  6
DOT
100
AcDbCircle
 10
1407.49999
 20
923.930301
 30
0.0
 40
3.7
100
AcDbArc
 50
90.0
 51
180.0
  0
LINE
  5
666
330
A
100
AcDbEntity
  8
0
  6
DOT
100
AcDbLine
 10
1407.49999
 20
927.6303010000001
 30
0.0
 11
1409.99999
 21
927.6303010000001
 31
0.0
  0
LINE
  5
667
330
A
100
AcDbEntity
  8
0
  6
DOT
100
AcDbLine
 10
1439.99999
 20
920.2303009999999
 30
0.0
 11
1442.49999
 21
920.2303009999999
 31
0.0
  0
ARC
  5
668
330
A
100
AcDbEntity
  8
0
  6
DOT
100
AcDbCircle
 10
1442.49999
 20
923.930301
 30
0.0
 40
3.7
100
AcDbArc
 50
270.0
 51
0.0
  0
ARC
  5
669
330
A
100
AcDbEntity
  8
0
  6
DOT
100
AcDbCircle
 10
1442.49999
 20
923.930301
 30
0.0
 40
3.7
100
AcDbArc
 50
0.0
 51
90.0
  0
LINE
  5
66A
330
A
100
AcDbEntity
  8
0
  6
DOT
100
AcDbLine
 10
1442.49999
 20
927.6303010000001
 30
0.0
 11
1439.99999
 21
927.6303010000001
 31
0.0
  0
ARC
  5
66B
330
A
100
AcDbEntity
  8
0
  6
DOT
100
AcDbCircle
 10
1442.49999
 20
1399.930301
 30
0.0
 40
3.7
100
AcDbArc
 50
0.0
 51
90.0
  0
LINE
  5
66C
330
A
100
AcDbEntity
  8
0
  6
DOT
100
AcDbLine
 10
1439.99999
 20
1403.630301
 30
0.0
 11
1442.49999
 21
1403.630301
 31
0.0
  0
ARC
  5
66D
330
A
100
AcDbEntity
  8
0
  6
DOT
100
AcDbCircle
 10
1442.49999
 20
1399.930301
 30
0.0
 40
3.7
100
AcDbArc
 50
270.0
 51
0.0
  0
LINE
  5
66E
330
A
100
AcDbEntity
  8
0
  6
DOT
100
AcDbLine
 10
1442.49999
 20
1396.230301
 30
0.0
 11
1439.99999
 21
1396.230301
 31
0.0
  0
LINE
  5
66F
330
A
100
AcDbEntity
  8
0
  6
DOT
100
AcDbLine
 10
1407.49999
 20
1396.230301
 30
0.0
 11
1409.99999
 21
1396.230301
 31
0.0
  0
ARC
  5
670
330
A
100
AcDbEntity
  8
0
  6
DOT
100
AcDbCircle
 10
1407.49999
 20
1399.930301
 30
0.0
 40
3.7
100
AcDbArc
 50
180.0
 51
270.0
  0
ARC
  5
671
330
A
100
AcDbEntity
  8
0
  6
DOT
100
AcDbCircle
 10
1407.49999
 20
1399.930301
 30
0.0
 40
3.7
100
AcDbArc
 50
90.0
 51
180.0
  0
LINE
  5
672
330
A
100
AcDbEntity
  8
0
  6
DOT
100
AcDbLine
 10
1407.49999
 20
1403.630301
 30
0.0
 11
1409.99999
 21
1403.630301
 31
0.0
  0
LINE
  5
673
330
A
100
AcDbEntity
  8
0
  6
DOT
100
AcDbLine
 10
672.5
 20
1396.230301
 30
0.0
 11
670.0
 21
1396.230301
 31
0.0
  0
ARC
  5
674
330
A
100
AcDbEntity
  8
0
  6
DOT
100
AcDbCircle
 10
672.5
 20
1399.930301
 30
0.0
 40
3.7
100
AcDbArc
 50
270.0
 51
0.0
  0
ARC
  5
675
330
A
100
AcDbEntity
  8
0
  6
DOT
100
AcDbCircle
 10
672.5
 20
1399.930301
 30
0.0
 40
3.7
100
AcDbArc
 50
0.0
 51
90.0
  0
LINE
  5
676
330
A
100
AcDbEntity
  8
0
  6
DOT
100
AcDbLine
 10
670.0
 20
1403.630301
 30
0.0
 11
672.5
 21
1403.630301
 31
0.0
  0
LINE
  5
677
330
A
100
AcDbEntity
  8
0
  6
DOT
100
AcDbLine
 10
637.5
 20
1396.230301
 30
0.0
 11
640.0
 21
1396.230301
 31
0.0
  0
ARC
  5
678
330
A
100
AcDbEntity
  8
0
  6
DOT
100
AcDbCircle
 10
637.5
 20
1399.930301
 30
0.0
 40
3.7
100
AcDbArc
 50
180.0
 51
270.0
  0
ARC
  5
679
330
A
100
AcDbEntity
  8
0
  6
DOT
100
AcDbCircle
 10
637.5
 20
1399.930301
 30
0.0
 40
3.7
100
AcDbArc
 50
90.0
 51
180.0
  0
LINE
  5
67A
330
A
100
AcDbEntity
  8
0
  6
DOT
100
AcDbLine
 10
640.0
 20
1403.630301
 30
0.0
 11
637.5
 21
1403.630301
 31
0.0
  0
LINE
  5
67B
330
A
100
AcDbEntity
  8
0
  6
DASHDOT
100
AcDbLine
 10
640.5487299999999
 20
1399.930301
 30
0.0
 11
669.45127
 21
1399.930301
 31
0.0
  0
LINE
  5
67C
330
A
100
AcDbEntity
  8
0
  6
DASHDOT
100
AcDbLine
 10
1439.45126
 20
1399.930301
 30
0.0
 11
1410.54872
 21
1399.930301
 31
0.0
  0
LINE
  5
67D
330
A
100
AcDbEntity
  8
0
  6
DASHDOT
100
AcDbLine
 10
1439.45126
 20
923.930301
 30
0.0
 11
1410.54872
 21
923.930301
 31
0.0
  0
LINE
  5
67E
330
A
100
AcDbEntity
  8
0
  6
DASHDOT
100
AcDbLine
 10
640.5487299999999
 20
923.930301
 30
0.0
 11
669.45127
 21
923.930301
 31
0.0
  0
ENDSEC
  0
SECTION
  2
OBJECTS
  0
DICTIONARY
  5
19
330
0
100
AcDbDictionary
281
     1
  3
ACAD_COLOR
350
688
  3
ACAD_GROUP
350
1A
  3
ACAD_LAYOUT
350
689
  3
ACAD_MATERIAL
350
687
  3
ACAD_MLINESTYLE
350
1B
  3
ACAD_PLOTSETTINGS
350
68A
  3
ACAD_PLOTSTYLENAME
350
685
  3
ACDBHEADERROUNDTRIPXREC
350
6D3
  3
AcDbVariableDictionary
350
6AC
  3
ASE_INDEX_DICTIONARY
350
693
  0
DICTIONARY
  5
688
102
{ACAD_REACTORS
330
19
102
}
330
19
100
AcDbDictionary
281
     1
  0
DICTIONARY
  5
1A
102
{ACAD_REACTORS
330
19
102
}
330
19
100
AcDbDictionary
281
     1
  0
DICTIONARY
  5
689
102
{ACAD_REACTORS
330
19
102
}
330
19
100
AcDbDictionary
281
     1
  3
Model
350
68B
  3
レイアウト1
350
68C
  0
DICTIONARY
  5
687
102
{ACAD_REACTORS
330
19
102
}
330
19
100
AcDbDictionary
281
     1
  0
DICTIONARY
  5
1B
102
{ACAD_REACTORS
330
19
102
}
330
19
100
AcDbDictionary
281
     1
  3
STANDARD
350
1C
  0
DICTIONARY
  5
68A
102
{ACAD_REACTORS
330
19
102
}
330
19
100
AcDbDictionary
281
     1
  0
ACDBDICTIONARYWDFLT
  5
685
102
{ACAD_REACTORS
330
19
102
}
330
19
100
AcDbDictionary
281
     1
  3
Normal
350
686
100
AcDbDictionaryWithDefault
340
686
  0
DICTIONARY
  5
6D3
102
{ACAD_REACTORS
330
19
102
}
330
19
100
AcDbDictionary
281
     1
  3
COLORDICT
350
6D5
  3
MATERIALDICT
350
6D4
  0
DICTIONARY
  5
6AC
102
{ACAD_REACTORS
330
19
102
}
330
19
100
AcDbDictionary
281
     1
  3
DIMASSOC
350
6AD
  3
PROJECTNAME
350
6AE
  0
DICTIONARY
  5
693
102
{ACAD_REACTORS
330
19
102
}
330
19
100
AcDbDictionary
281
     1
  3
ASEBlockHierarchyIndexRecord
350
695
1001
DCO15
1040
1512373220.426
  0
LAYOUT
  5
68B
102
{ACAD_XDICTIONARY
360
6D6
102
}
102
{ACAD_REACTORS
330
689
102
}
330
689
100
AcDbPlotSettings
  1

  2
none_device
  4
Letter_(8.50_x_11.00_Inches)
  6

 40
6.349999904632568
 41
6.349999904632568
 42
6.350006103515625
 43
6.350006103515625
 44
215.8999938964844
 45
279.3999938964844
 46
0.0
 47
0.0
 48
0.0
 49
0.0
140
0.0
141
0.0
142
1.0
143
1.0
 70
 11952
 72
     0
 73
     1
 74
     0
  7

 75
     0
147
1.0
148
-12851.41820321785
149
-61.71009529310794
100
AcDbLayout
  1
Model
 70
     1
 71
     0
 10
0.0
 20
0.0
 11
12.0
 21
9.0
 12
0.0
 22
0.0
 32
0.0
 14
0.0
 24
0.0
 34
0.0
 15
0.0
 25
0.0
 35
0.0
146
0.0
 13
0.0
 23
0.0
 33
0.0
 16
1.0
 26
0.0
 36
0.0
 17
0.0
 27
1.0
 37
0.0
 76
     0
330
A
  0
LAYOUT
  5
68C
102
{ACAD_XDICTIONARY
360
6D8
102
}
102
{ACAD_REACTORS
330
689
102
}
330
689
100
AcDbPlotSettings
  1

  2
\\NTKD30-SV251\NTKD30-PR216-1
  4

  6

 40
0.0
 41
0.0
 42
0.0
 43
0.0
 44
0.0
 45
0.0
 46
0.0
 47
0.0
 48
0.0
 49
0.0
140
0.0
141
0.0
142
1.0
143
1.0
 70
   688
 72
     0
 73
     0
 74
     5
  7

 75
    16
147
1.0
148
0.0
149
0.0
100
AcDbLayout
  1
レイアウト1
 70
     0
 71
     1
 10
0.0
 20
0.0
 11
12.0
 21
9.0
 12
0.0
 22
0.0
 32
0.0
 14
1.000000000000000E+20
 24
1.000000000000000E+20
 34
1.000000000000000E+20
 15
-1.000000000000000E+20
 25
-1.000000000000000E+20
 35
-1.000000000000000E+20
146
0.0
 13
0.0
 23
0.0
 33
0.0
 16
1.0
 26
0.0
 36
0.0
 17
0.0
 27
1.0
 37
0.0
 76
     0
330
B
  0
MLINESTYLE
  5
1C
102
{ACAD_REACTORS
330
1B
102
}
330
1B
100
AcDbMlineStyle
  2
STANDARD
 70
     0
  3

 62
     0
 51
90.0
 52
90.0
 71
     2
 49
0.5
 62
   256
  6
BYLAYER
 49
-0.5
 62
   256
  6
BYLAYER
  0
ACDBPLACEHOLDER
  5
686
102
{ACAD_REACTORS
330
685
102
}
330
685
  0
XRECORD
  5
6D5
102
{ACAD_REACTORS
330
6D3
102
}
330
6D3
100
AcDbXrecord
280
     1
340
688
  0
XRECORD
  5
6D4
102
{ACAD_REACTORS
330
6D3
102
}
330
6D3
100
AcDbXrecord
280
     1
340
687
  0
DICTIONARYVAR
  5
6AD
102
{ACAD_REACTORS
330
6AC
102
}
330
6AC
100
DictionaryVariables
280
     0
  1
1
  0
DICTIONARYVAR
  5
6AE
102
{ACAD_REACTORS
330
6AC
102
}
330
6AC
100
DictionaryVariables
280
     0
  1

  0
XRECORD
  5
695
102
{ACAD_REACTORS
330
693
102
}
330
693
100
AcDbXrecord
280
     1
  0
DICTIONARY
  5
6D6
330
68B
100
AcDbDictionary
280
     1
281
     1
  3
ACAD_XREC_ROUNDTRIP
360
6D7
  0
DICTIONARY
  5
6D8
330
68C
100
AcDbDictionary
280
     1
281
     1
  3
ACAD_XREC_ROUNDTRIP
360
6D9
  0
XRECORD
  5
6D7
102
{ACAD_REACTORS
330
6D6
102
}
330
6D6
100
AcDbXrecord
280
     1
102
SHADEPLOT
 70
     0
102
SHADEPLOTRESLEVEL
 70
     2
102
SHADEPLOTCUSTOMDPI
 70
   300
  0
XRECORD
  5
6D9
102
{ACAD_REACTORS
330
6D8
102
}
330
6D8
100
AcDbXrecord
280
     1
102
SHADEPLOT
 70
     0
102
SHADEPLOTRESLEVEL
 70
     2
102
SHADEPLOTCUSTOMDPI
 70
   300
  0
ENDSEC
  0
EOF
