  0
SECTION
  2
HEADER
  9
$ACADVER
  1
AC1015
  9
$ACADMAINTVER
 70
    20
  9
$DWGCODEPAGE
  3
ANSI_932
  9
$INSBASE
 10
0.0
 20
0.0
 30
0.0
  9
$EXTMIN
 10
430.1886468680909
 20
195.8941971677054
 30
-0.0015258207003583
  9
$EXTMAX
 10
2275.84332638239
 20
1480.359377414872
 30
0.0000000349246037
  9
$LIMMIN
 10
0.0
 20
0.0
  9
$LIMMAX
 10
841.0
 20
594.0
  9
$ORTHOMODE
 70
     0
  9
$REGENMODE
 70
     1
  9
$FILLMODE
 70
     1
  9
$QTEXTMODE
 70
     0
  9
$MIRRTEXT
 70
     1
  9
$LTSCALE
 40
1.0
  9
$ATTMODE
 70
     1
  9
$TEXTSIZE
 40
0.0
  9
$TRACEWID
 40
0.05
  9
$TEXTSTYLE
  7
STANDARD
  9
$CLAYER
  8
0
  9
$CELTYPE
  6
CONTINUOUS
  9
$CECOLOR
 62
   256
  9
$CELTSCALE
 40
1.0
  9
$DISPSILH
 70
     0
  9
$DIMSCALE
 40
1.0
  9
$DIMASZ
 40
0.18
  9
$DIMEXO
 40
0.0625
  9
$DIMDLI
 40
0.38
  9
$DIMRND
 40
0.0
  9
$DIMDLE
 40
0.0
  9
$DIMEXE
 40
0.18
  9
$DIMTP
 40
0.0
  9
$DIMTM
 40
0.0
  9
$DIMTXT
 40
0.18
  9
$DIMCEN
 40
0.09
  9
$DIMTSZ
 40
0.0
  9
$DIMTOL
 70
     0
  9
$DIMLIM
 70
     0
  9
$DIMTIH
 70
     1
  9
$DIMTOH
 70
     1
  9
$DIMSE1
 70
     0
  9
$DIMSE2
 70
     0
  9
$DIMTAD
 70
     0
  9
$DIMZIN
 70
     0
  9
$DIMBLK
  1

  9
$DIMASO
 70
     1
  9
$DIMSHO
 70
     1
  9
$DIMPOST
  1

  9
$DIMAPOST
  1

  9
$DIMALT
 70
     0
  9
$DIMALTD
 70
     2
  9
$DIMALTF
 40
25.4
  9
$DIMLFAC
 40
1.0
  9
$DIMTOFL
 70
     0
  9
$DIMTVP
 40
0.0
  9
$DIMTIX
 70
     0
  9
$DIMSOXD
 70
     0
  9
$DIMSAH
 70
     0
  9
$DIMBLK1
  1

  9
$DIMBLK2
  1

  9
$DIMSTYLE
  2
STANDARD
  9
$DIMCLRD
 70
     0
  9
$DIMCLRE
 70
     0
  9
$DIMCLRT
 70
     0
  9
$DIMTFAC
 40
1.0
  9
$DIMGAP
 40
0.09
  9
$DIMJUST
 70
     0
  9
$DIMSD1
 70
     0
  9
$DIMSD2
 70
     0
  9
$DIMTOLJ
 70
     1
  9
$DIMTZIN
 70
     0
  9
$DIMALTZ
 70
     0
  9
$DIMALTTZ
 70
     0
  9
$DIMUPT
 70
     0
  9
$DIMDEC
 70
     4
  9
$DIMTDEC
 70
     4
  9
$DIMALTU
 70
     2
  9
$DIMALTTD
 70
     2
  9
$DIMTXSTY
  7
STANDARD
  9
$DIMAUNIT
 70
     0
  9
$DIMADEC
 70
     0
  9
$DIMALTRND
 40
0.0
  9
$DIMAZIN
 70
     0
  9
$DIMDSEP
 70
    46
  9
$DIMATFIT
 70
     3
  9
$DIMFRAC
 70
     0
  9
$DIMLDRBLK
  1

  9
$DIMLUNIT
 70
     2
  9
$DIMLWD
 70
    -2
  9
$DIMLWE
 70
    -2
  9
$DIMTMOVE
 70
     0
  9
$LUNITS
 70
     2
  9
$LUPREC
 70
     4
  9
$SKETCHINC
 40
0.1
  9
$FILLETRAD
 40
0.0
  9
$AUNITS
 70
     0
  9
$AUPREC
 70
     0
  9
$MENU
  1
acad
  9
$ELEVATION
 40
0.0
  9
$PELEVATION
 40
0.0
  9
$THICKNESS
 40
0.0
  9
$LIMCHECK
 70
     0
  9
$CHAMFERA
 40
0.0
  9
$CHAMFERB
 40
0.0
  9
$CHAMFERC
 40
0.0
  9
$CHAMFERD
 40
0.0
  9
$SKPOLY
 70
     0
  9
$TDCREATE
 40
2453282.528517002
  9
$TDUCREATE
 40
2453282.153517002
  9
$TDUPDATE
 40
2453307.532007870
  9
$TDUUPDATE
 40
2453307.157007870
  9
$TDINDWG
 40
0.0889955903
  9
$TDUSRTIMER
 40
0.0889952199
  9
$USRTIMER
 70
     1
  9
$ANGBASE
 50
0.0
  9
$ANGDIR
 70
     0
  9
$PDMODE
 70
     0
  9
$PDSIZE
 40
0.0
  9
$PLINEWID
 40
0.0
  9
$SPLFRAME
 70
     0
  9
$SPLINETYPE
 70
     6
  9
$SPLINESEGS
 70
     8
  9
$HANDSEED
  5
604
  9
$SURFTAB1
 70
     6
  9
$SURFTAB2
 70
     6
  9
$SURFTYPE
 70
     6
  9
$SURFU
 70
     6
  9
$SURFV
 70
     6
  9
$UCSBASE
  2

  9
$UCSNAME
  2

  9
$UCSORG
 10
0.0
 20
0.0
 30
0.0
  9
$UCSXDIR
 10
1.0
 20
0.0
 30
0.0
  9
$UCSYDIR
 10
0.0
 20
1.0
 30
0.0
  9
$UCSORTHOREF
  2

  9
$UCSORTHOVIEW
 70
     0
  9
$UCSORGTOP
 10
0.0
 20
0.0
 30
0.0
  9
$UCSORGBOTTOM
 10
0.0
 20
0.0
 30
0.0
  9
$UCSORGLEFT
 10
0.0
 20
0.0
 30
0.0
  9
$UCSORGRIGHT
 10
0.0
 20
0.0
 30
0.0
  9
$UCSORGFRONT
 10
0.0
 20
0.0
 30
0.0
  9
$UCSORGBACK
 10
0.0
 20
0.0
 30
0.0
  9
$PUCSBASE
  2

  9
$PUCSNAME
  2

  9
$PUCSORG
 10
0.0
 20
0.0
 30
0.0
  9
$PUCSXDIR
 10
1.0
 20
0.0
 30
0.0
  9
$PUCSYDIR
 10
0.0
 20
1.0
 30
0.0
  9
$PUCSORTHOREF
  2

  9
$PUCSORTHOVIEW
 70
     0
  9
$PUCSORGTOP
 10
0.0
 20
0.0
 30
0.0
  9
$PUCSORGBOTTOM
 10
0.0
 20
0.0
 30
0.0
  9
$PUCSORGLEFT
 10
0.0
 20
0.0
 30
0.0
  9
$PUCSORGRIGHT
 10
0.0
 20
0.0
 30
0.0
  9
$PUCSORGFRONT
 10
0.0
 20
0.0
 30
0.0
  9
$PUCSORGBACK
 10
0.0
 20
0.0
 30
0.0
  9
$USERI1
 70
     0
  9
$USERI2
 70
     0
  9
$USERI3
 70
     0
  9
$USERI4
 70
     0
  9
$USERI5
 70
     0
  9
$USERR1
 40
0.0
  9
$USERR2
 40
0.0
  9
$USERR3
 40
0.0
  9
$USERR4
 40
0.0
  9
$USERR5
 40
0.0
  9
$WORLDVIEW
 70
     1
  9
$SHADEDGE
 70
     3
  9
$SHADEDIF
 70
    70
  9
$TILEMODE
 70
     1
  9
$MAXACTVP
 70
    16
  9
$PINSBASE
 10
0.0
 20
0.0
 30
0.0
  9
$PLIMCHECK
 70
     0
  9
$PEXTMIN
 10
1.000000000000000E+20
 20
1.000000000000000E+20
 30
1.000000000000000E+20
  9
$PEXTMAX
 10
-1.000000000000000E+20
 20
-1.000000000000000E+20
 30
-1.000000000000000E+20
  9
$PLIMMIN
 10
0.0
 20
0.0
  9
$PLIMMAX
 10
12.0
 20
9.0
  9
$UNITMODE
 70
     0
  9
$VISRETAIN
 70
     0
  9
$PLINEGEN
 70
     1
  9
$PSLTSCALE
 70
     0
  9
$TREEDEPTH
 70
  3020
  9
$CMLSTYLE
  2
STANDARD
  9
$CMLJUST
 70
     0
  9
$CMLSCALE
 40
1.0
  9
$PROXYGRAPHICS
 70
     1
  9
$MEASUREMENT
 70
     0
  9
$CELWEIGHT
370
    -1
  9
$ENDCAPS
280
     0
  9
$JOINSTYLE
280
     0
  9
$LWDISPLAY
290
     0
  9
$INSUNITS
 70
     0
  9
$HYPERLINKBASE
  1

  9
$STYLESHEET
  1
設計1-100-mono.ctb
  9
$XEDIT
290
     1
  9
$CEPSNTYPE
380
     0
  9
$PSTYLEMODE
290
     1
  9
$FINGERPRINTGUID
  2
{0B805C76-1134-41D4-93C1-EC3BFA918655}
  9
$VERSIONGUID
  2
{3D7F1E7D-4C44-486B-859D-33A3AB8CE835}
  9
$EXTNAMES
290
     1
  9
$PSVPSCALE
 40
0.0
  9
$OLESTARTUP
290
     0
  0
ENDSEC
  0
SECTION
  2
CLASSES
  0
CLASS
  1
IMAGE
  2
AcDbRasterImage
  3
ISM
 90
    32895
280
     0
281
     1
  0
CLASS
  1
DICTIONARYVAR
  2
AcDbDictionaryVar
  3
ObjectDBX Classes
 90
        0
280
     0
281
     0
  0
CLASS
  1
RASTERVARIABLES
  2
AcDbRasterVariables
  3
ISM
 90
    32768
280
     0
281
     0
  0
CLASS
  1
IMAGEDEF
  2
AcDbRasterImageDef
  3
ISM
 90
    32768
280
     0
281
     0
  0
CLASS
  1
IMAGEDEF_REACTOR
  2
AcDbRasterImageDefReactor
  3
ISM
 90
    32769
280
     0
281
     0
  0
CLASS
  1
IDBUFFER
  2
AcDbIdBuffer
  3
ObjectDBX Classes
 90
    32768
280
     0
281
     0
  0
CLASS
  1
SPATIAL_FILTER
  2
AcDbSpatialFilter
  3
ObjectDBX Classes
 90
    32768
280
     0
281
     0
  0
CLASS
  1
SORTENTSTABLE
  2
AcDbSortentsTable
  3
ObjectDBX Classes
 90
    32768
280
     0
281
     0
  0
CLASS
  1
LAYER_INDEX
  2
AcDbLayerIndex
  3
ObjectDBX Classes
 90
    32768
280
     0
281
     0
  0
CLASS
  1
SPATIAL_INDEX
  2
AcDbSpatialIndex
  3
ObjectDBX Classes
 90
    32768
280
     0
281
     0
  0
CLASS
  1
OBJECT_PTR
  2
CAseDLPNTableRecord
  3
ASE-LPNTableRecord
 90
    32769
280
     0
281
     0
  0
CLASS
  1
LAYOUT
  2
AcDbLayout
  3
ObjectDBX Classes
 90
        0
280
     0
281
     0
  0
CLASS
  1
PLOTSETTINGS
  2
AcDbPlotSettings
  3
ObjectDBX Classes
 90
    32768
280
     0
281
     0
  0
CLASS
  1
ACDBDICTIONARYWDFLT
  2
AcDbDictionaryWithDefault
  3
ObjectDBX Classes
 90
        0
280
     0
281
     0
  0
CLASS
  1
ACDBPLACEHOLDER
  2
AcDbPlaceHolder
  3
ObjectDBX Classes
 90
        0
280
     0
281
     0
  0
CLASS
  1
VBA_PROJECT
  2
AcDbVbaProject
  3
acad
 90
    32768
280
     0
281
     0
  0
CLASS
  1
WIPEOUT
  2
AcDbWipeout
  3
"WipeOut|Product Desc: Object Enabler for WipeOut entity^I^I^I^I^I^I|Company: Autodesk, Inc.^I^I^I^I^I^I|WEB Address: www.autodesk.com"
 90
    32895
280
     0
281
     1
  0
CLASS
  1
WIPEOUTVARIABLES
  2
AcDbWipeoutVariables
  3
"WipeOut|Product Desc:     WipeOut Dbx Application|Company:          Autodesk, Inc.|WEB Address:      www.autodesk.com"
 90
    32768
280
     0
281
     0
  0
CLASS
  1
RTEXT
  2
RText
  3
RText|AutoCAD Express Tool|expresstools@autodesk.com
 90
    32768
280
     0
281
     1
  0
CLASS
  1
ARCALIGNEDTEXT
  2
AcDbArcAlignedText
  3
ATEXT|AutoCAD Express Tool|expresstools@autodesk.com
 90
    32768
280
     0
281
     1
  0
ENDSEC
  0
SECTION
  2
TABLES
  0
TABLE
  2
VPORT
  5
7
330
0
100
AcDbSymbolTable
 70
     9
  0
VPORT
  5
5FC
330
7
100
AcDbSymbolTableRecord
100
AcDbViewportTableRecord
  2
*Active
 70
     0
 10
0.0
 20
0.0
 11
1.0
 21
1.0
 12
1438.22077696427
 22
869.5039386586058
 13
0.0
 23
0.0
 14
1.0
 24
1.0
 15
0.0
 25
0.0
 16
0.0
 26
0.0
 36
1.0
 17
0.0
 27
0.0
 37
0.0
 40
1976.429012837689
 41
1.277707006369426
 42
50.0
 43
0.0
 44
0.0
 50
0.0
 51
0.0
 71
     0
 72
   100
 73
     1
 74
     1
 75
     0
 76
     0
 77
     0
 78
     0
281
     0
 65
     1
110
0.0
120
0.0
130
0.0
111
1.0
121
0.0
131
0.0
112
0.0
122
1.0
132
0.0
 79
     0
146
0.0
  0
ENDTAB
  0
TABLE
  2
LTYPE
  5
4
330
0
100
AcDbSymbolTable
 70
     5
  0
LTYPE
  5
11
330
4
100
AcDbSymbolTableRecord
100
AcDbLinetypeTableRecord
  2
BYBLOCK
 70
     0
  3

 72
    65
 73
     0
 40
0.0
  0
LTYPE
  5
12
330
4
100
AcDbSymbolTableRecord
100
AcDbLinetypeTableRecord
  2
BYLAYER
 70
     0
  3

 72
    65
 73
     0
 40
0.0
  0
LTYPE
  5
13
330
4
100
AcDbSymbolTableRecord
100
AcDbLinetypeTableRecord
  2
CONTINUOUS
 70
     0
  3
実線
 72
    65
 73
     0
 40
0.0
  0
LTYPE
  5
1D
330
4
100
AcDbSymbolTableRecord
100
AcDbLinetypeTableRecord
  2
DASHED
 70
     0
  3
破線
 72
    65
 73
     2
 40
3.799999999999999
 49
3.0
 74
     0
 49
-0.8
 74
     0
  0
LTYPE
  5
1E
330
4
100
AcDbSymbolTableRecord
100
AcDbLinetypeTableRecord
  2
DOT
 70
     0
  3
点線
 72
    65
 73
     2
 40
2.0
 49
1.0
 74
     0
 49
-1.0
 74
     0
  0
LTYPE
  5
1F
330
4
100
AcDbSymbolTableRecord
100
AcDbLinetypeTableRecord
  2
DASHDOT
 70
     0
  3
一点鎖線
 72
    65
 73
     4
 40
25.6
 49
20.0
 74
     0
 49
-2.0
 74
     0
 49
1.6
 74
     0
 49
-2.0
 74
     0
  0
LTYPE
  5
20
330
4
100
AcDbSymbolTableRecord
100
AcDbLinetypeTableRecord
  2
DIVIDE
 70
     0
  3
二点鎖線
 72
    65
 73
     6
 40
31.2
 49
20.0
 74
     0
 49
-2.399999999999999
 74
     0
 49
2.0
 74
     0
 49
-2.399999999999999
 74
     0
 49
2.0
 74
     0
 49
-2.399999999999999
 74
     0
  0
ENDTAB
  0
TABLE
  2
LAYER
  5
2
330
0
100
AcDbSymbolTable
 70
     2
  0
LAYER
  5
14
330
2
100
AcDbSymbolTableRecord
100
AcDbLayerTableRecord
  2
0
 70
     0
 62
     7
  6
CONTINUOUS
370
    -3
390
5AC
  0
ENDTAB
  0
TABLE
  2
STYLE
  5
3
330
0
100
AcDbSymbolTable
 70
     5
  0
STYLE
  5
17
330
3
100
AcDbSymbolTableRecord
100
AcDbTextStyleTableRecord
  2
STANDARD
 70
     0
 40
0.0
 41
1.0
 50
0.0
 71
     0
 42
0.0
  3
simplex.shx
  4
bigfont.shx
  0
ENDTAB
  0
TABLE
  2
VIEW
  5
5
330
0
100
AcDbSymbolTable
 70
     0
  0
ENDTAB
  0
TABLE
  2
UCS
  5
6
330
0
100
AcDbSymbolTable
 70
     0
  0
ENDTAB
  0
TABLE
  2
APPID
  5
8
330
0
100
AcDbSymbolTable
 70
     2
  0
APPID
  5
16
330
8
100
AcDbSymbolTableRecord
100
AcDbRegAppTableRecord
  2
ACAD
 70
     0
  0
APPID
  5
5B8
330
8
100
AcDbSymbolTableRecord
100
AcDbRegAppTableRecord
  2
DCO15
 70
     0
  0
ENDTAB
  0
TABLE
  2
DIMSTYLE
  5
9
330
0
100
AcDbSymbolTable
 70
     1
100
AcDbDimStyleTable
 71
     1
340
18
  0
DIMSTYLE
105
18
330
9
100
AcDbSymbolTableRecord
100
AcDbDimStyleTableRecord
  2
STANDARD
 70
     0
340
17
  0
ENDTAB
  0
TABLE
  2
BLOCK_RECORD
  5
1
330
0
100
AcDbSymbolTable
 70
     8
  0
BLOCK_RECORD
  5
A
330
1
100
AcDbSymbolTableRecord
100
AcDbBlockTableRecord
  2
*MODEL_SPACE
340
5B1
  0
BLOCK_RECORD
  5
B
330
1
100
AcDbSymbolTableRecord
100
AcDbBlockTableRecord
  2
*PAPER_SPACE
340
5B2
  0
ENDTAB
  0
ENDSEC
  0
SECTION
  2
BLOCKS
  0
BLOCK
  5
D
330
A
100
AcDbEntity
  8
0
100
AcDbBlockBegin
  2
*MODEL_SPACE
 70
     0
 10
0.0
 20
0.0
 30
0.0
  3
*MODEL_SPACE
  1

  0
ENDBLK
  5
E
330
A
100
AcDbEntity
  8
0
100
AcDbBlockEnd
  0
BLOCK
  5
F
330
B
100
AcDbEntity
 67
     1
  8
0
100
AcDbBlockBegin
  2
*PAPER_SPACE
 70
     0
 10
0.0
 20
0.0
 30
0.0
  3
*PAPER_SPACE
  1

  0
ENDBLK
  5
10
330
B
100
AcDbEntity
 67
     1
  8
0
100
AcDbBlockEnd
  0
ENDSEC
  0
SECTION
  2
ENTITIES
  0
LINE
  5
55
330
A
100
AcDbEntity
  8
0
  6
Continuous
100
AcDbLine
 10
503.40477
 20
441.69931
 30
0.0
 11
503.40477
 21
393.0
 31
0.0
  0
LINE
  5
56
330
A
100
AcDbEntity
  8
0
  6
Continuous
100
AcDbLine
 10
1603.40476
 20
441.69931
 30
0.0
 11
1603.40476
 21
393.0
 31
0.0
  0
TEXT
  5
57
330
A
100
AcDbEntity
  8
0
  6
Continuous
100
AcDbText
 10
1047.404765
 20
395.3131117602877
 30
0.0
 40
15.0
  1
Ｌ
100
AcDbText
  0
LINE
  5
58
330
A
100
AcDbEntity
  8
0
  6
Continuous
100
AcDbLine
 10
503.40477
 20
393.0
 30
0.0
 11
1603.40476
 21
393.0
 31
0.0
  0
CIRCLE
  5
59
330
A
100
AcDbEntity
  8
0
  6
Continuous
100
AcDbCircle
 10
503.40477
 20
393.0
 30
0.0
 40
1.5
  0
CIRCLE
  5
5A
330
A
100
AcDbEntity
  8
0
  6
Continuous
100
AcDbCircle
 10
503.40477
 20
393.0
 30
0.0
 40
0.75
  0
CIRCLE
  5
5B
330
A
100
AcDbEntity
  8
0
  6
Continuous
100
AcDbCircle
 10
1603.40476
 20
393.0
 30
0.0
 40
1.5
  0
CIRCLE
  5
5C
330
A
100
AcDbEntity
  8
0
  6
Continuous
100
AcDbCircle
 10
1603.40476
 20
393.0
 30
0.0
 40
0.75
  0
LEADER
  5
5D
330
A
100
AcDbEntity
  8
0
  6
Continuous
100
AcDbLeader
  3
STANDARD
 76
     3
 10
616.1
 20
489.2
 30
0.0
 10
701.7302553227136
 20
340.8840463790944
 30
0.0
 10
760.5017725761562
 20
340.8840463790944
 30
0.0
1001
ACAD
1000
DSTYLE
1002
{
1070
    41
1040
6.0
1070
     5
1000
_EX_NORM
1070
     6
1000
_EX_NORM
1070
     7
1000
_EX_NORM
1002
}
  0
TEXT
  5
5E
330
A
100
AcDbEntity
  8
0
  6
Continuous
100
AcDbText
 10
706.1205263227137
 20
342.5261220722376
 30
0.0
 40
15.0
  1
ヒンジ
100
AcDbText
  0
LEADER
  5
5F
330
A
100
AcDbEntity
  8
0
  6
Continuous
100
AcDbLeader
  3
STANDARD
 76
     3
 10
831.3745831297579
 20
444.1993099999999
 30
0.0
 10
891.0236781979879
 20
340.8840463790944
 30
0.0
 10
1312.651976860787
 20
340.8840463790944
 30
0.0
1001
ACAD
1000
DSTYLE
1002
{
1070
    41
1040
6.0
1070
     5
1000
_EX_NORM
1070
     6
1000
_EX_NORM
1070
     7
1000
_EX_NORM
1002
}
  0
TEXT
  5
60
330
A
100
AcDbEntity
  8
0
  6
Continuous
100
AcDbText
 10
901.2895630504983
 20
344.4293827008363
 30
0.0
 40
15.0
  1
フッ素樹脂フィルムガラスクロス（高透過６０％）
100
AcDbText
  0
TEXT
  5
61
330
A
100
AcDbEntity
  8
0
  6
Continuous
100
AcDbText
 10
1039.436028564136
 20
646.9519196351649
 30
0.0
 40
15.0
  1
落下防止用スプリング
100
AcDbText
  0
LINE
  5
63
330
A
100
AcDbEntity
  8
0
  6
Continuous
100
AcDbLine
 10
500.90477
 20
444.1993099999999
 30
0.0
 11
461.3
 21
444.1993099999999
 31
0.0
  0
LINE
  5
64
330
A
100
AcDbEntity
  8
0
  6
Continuous
100
AcDbLine
 10
498.90477
 20
514.1993099999999
 30
0.0
 11
461.3
 21
514.1993099999999
 31
0.0
  0
TEXT
  5
65
330
A
100
AcDbEntity
  8
0
  6
Continuous
100
AcDbText
 10
458.7897523673063
 20
468.1469011973318
 30
0.0
 40
15.0
  1
70
 50
90.0
 41
0.8
100
AcDbText
  0
LINE
  5
66
330
A
100
AcDbEntity
  8
0
  6
Continuous
100
AcDbLine
 10
461.3
 20
444.1993099999999
 30
0.0
 11
461.3
 21
514.1993099999999
 31
0.0
  0
CIRCLE
  5
67
330
A
100
AcDbEntity
  8
0
  6
Continuous
100
AcDbCircle
 10
461.3
 20
444.1993099999999
 30
0.0
 40
1.5
  0
CIRCLE
  5
68
330
A
100
AcDbEntity
  8
0
  6
Continuous
100
AcDbCircle
 10
461.3
 20
444.1993099999999
 30
0.0
 40
0.75
  0
CIRCLE
  5
69
330
A
100
AcDbEntity
  8
0
  6
Continuous
100
AcDbCircle
 10
461.3
 20
514.1993099999999
 30
0.0
 40
1.5
  0
CIRCLE
  5
6A
330
A
100
AcDbEntity
  8
0
  6
Continuous
100
AcDbCircle
 10
461.3
 20
514.1993099999999
 30
0.0
 40
0.75
  0
LINE
  5
6B
330
A
100
AcDbEntity
  8
0
  6
Continuous
100
AcDbLine
 10
498.90477
 20
564.1993099999999
 30
0.0
 11
461.3
 21
564.1993099999999
 31
0.0
  0
TEXT
  5
6C
330
A
100
AcDbEntity
  8
0
  6
Continuous
100
AcDbText
 10
458.7897523673063
 20
528.1469011973317
 30
0.0
 40
15.0
  1
50
 50
90.0
 41
0.8
100
AcDbText
  0
LINE
  5
6D
330
A
100
AcDbEntity
  8
0
  6
Continuous
100
AcDbLine
 10
461.3
 20
514.1993099999999
 30
0.0
 11
461.3
 21
564.1993099999999
 31
0.0
  0
CIRCLE
  5
6E
330
A
100
AcDbEntity
  8
0
  6
Continuous
100
AcDbCircle
 10
461.3
 20
564.1993099999999
 30
0.0
 40
1.5
  0
CIRCLE
  5
6F
330
A
100
AcDbEntity
  8
0
  6
Continuous
100
AcDbCircle
 10
461.3
 20
564.1993099999999
 30
0.0
 40
0.75
  0
LINE
  5
70
330
A
100
AcDbEntity
  8
0
  6
Continuous
100
AcDbLine
 10
498.90477
 20
614.1993099999999
 30
0.0
 11
461.3
 21
614.1993099999999
 31
0.0
  0
TEXT
  5
71
330
A
100
AcDbEntity
  8
0
  6
Continuous
100
AcDbText
 10
458.7897523673063
 20
578.1469011973317
 30
0.0
 40
15.0
  1
50
 50
90.0
 41
0.8
100
AcDbText
  0
LINE
  5
72
330
A
100
AcDbEntity
  8
0
  6
Continuous
100
AcDbLine
 10
461.3
 20
564.1993099999999
 30
0.0
 11
461.3
 21
614.1993099999999
 31
0.0
  0
CIRCLE
  5
73
330
A
100
AcDbEntity
  8
0
  6
Continuous
100
AcDbCircle
 10
461.3
 20
614.1993099999999
 30
0.0
 40
1.5
  0
CIRCLE
  5
74
330
A
100
AcDbEntity
  8
0
  6
Continuous
100
AcDbCircle
 10
461.3
 20
614.1993099999999
 30
0.0
 40
0.75
  0
LEADER
  5
75
330
A
100
AcDbEntity
  8
0
  6
Continuous
100
AcDbLeader
  3
STANDARD
 76
     3
 10
516.811425
 20
457.9190409999999
 30
0.0
 10
613.5384550695615
 20
290.3829098467631
 30
0.0
 10
802.9955149356309
 20
290.3829098467631
 30
0.0
1001
ACAD
1000
DSTYLE
1002
{
1070
    41
1040
6.0
1070
     5
1000
_EX_NORM
1070
     6
1000
_EX_NORM
1070
     7
1000
_EX_NORM
1002
}
  0
TEXT
  5
76
330
A
100
AcDbEntity
  8
0
  6
Continuous
100
AcDbText
 10
619.9675200695615
 20
292.0249855399064
 30
0.0
 40
15.0
  1
アルミクランプレール
100
AcDbText
  0
TEXT
  5
77
330
A
100
AcDbEntity
  8
0
  6
Continuous
100
AcDbText
 10
649.0571173007841
 20
964.9371062034459
 30
0.0
 40
15.0
  1
ヒンジ
100
AcDbText
  0
LEADER
  5
78
330
A
100
AcDbEntity
  8
0
  6
Continuous
100
AcDbLeader
  3
STANDARD
 76
     3
 10
623.0
 20
926.830301
 30
0.0
 10
643.8547589999999
 20
962.9518039999998
 30
0.0
 10
706.3272962708561
 20
962.9518039999998
 30
0.0
1001
ACAD
1000
DSTYLE
1002
{
1070
    41
1040
6.0
1070
     5
1000
_EX_NORM
1070
     6
1000
_EX_NORM
1070
     7
1000
_EX_NORM
1002
}
  0
TEXT
  5
79
330
A
100
AcDbEntity
  8
0
  6
Continuous
100
AcDbText
 10
1635.808399616254
 20
448.0704660572452
 30
0.0
 40
15.0
  1
ラッチ
100
AcDbText
  0
LEADER
  5
7A
330
A
100
AcDbEntity
  8
0
  6
Continuous
100
AcDbLeader
  3
STANDARD
 76
     3
 10
1610.00476
 20
480.1
 30
0.0
 10
1629.754111
 20
445.893121
 30
0.0
 10
1687.682323222164
 20
445.893121
 30
0.0
1001
ACAD
1000
DSTYLE
1002
{
1070
    41
1040
6.0
1070
     5
1000
_EX_NORM
1070
     6
1000
_EX_NORM
1070
     7
1000
_EX_NORM
1002
}
  0
TEXT
  5
7B
330
A
100
AcDbEntity
  8
0
  6
Continuous
100
AcDbText
 10
2069.092442661005
 20
1072.029457895626
 30
0.0
 40
15.0
  1
ラッチ
100
AcDbText
  0
LEADER
  5
7C
330
A
100
AcDbEntity
  8
0
  6
Continuous
100
AcDbLeader
  3
STANDARD
 76
     3
 10
1981.6
 20
1007.1
 30
0.0
 10
2017.812813
 20
1069.822432
 30
0.0
 10
2119.536791306872
 20
1069.822432
 30
0.0
1001
ACAD
1000
DSTYLE
1002
{
1070
    41
1040
6.0
1070
     5
1000
_EX_NORM
1070
     6
1000
_EX_NORM
1070
     7
1000
_EX_NORM
1002
}
  0
LINE
  5
7D
330
A
100
AcDbEntity
  8
0
  6
Continuous
100
AcDbLine
 10
503.40477
 20
881.930301
 30
0.0
 11
503.40477
 21
832.0
 31
0.0
  0
LINE
  5
7E
330
A
100
AcDbEntity
  8
0
  6
Continuous
100
AcDbLine
 10
1603.40476
 20
881.930301
 30
0.0
 11
1603.40476
 21
832.0
 31
0.0
  0
TEXT
  5
7F
330
A
100
AcDbEntity
  8
0
  6
Continuous
100
AcDbText
 10
1049.090530398432
 20
833.9852986445924
 30
0.0
 40
15.0
  1
Ｌ
100
AcDbText
  0
LINE
  5
80
330
A
100
AcDbEntity
  8
0
  6
Continuous
100
AcDbLine
 10
503.40477
 20
832.0
 30
0.0
 11
1603.40476
 21
832.0
 31
0.0
  0
CIRCLE
  5
81
330
A
100
AcDbEntity
  8
0
  6
Continuous
100
AcDbCircle
 10
503.40477
 20
832.0
 30
0.0
 40
1.5
  0
CIRCLE
  5
82
330
A
100
AcDbEntity
  8
0
  6
Continuous
100
AcDbCircle
 10
503.40477
 20
832.0
 30
0.0
 40
0.75
  0
CIRCLE
  5
83
330
A
100
AcDbEntity
  8
0
  6
Continuous
100
AcDbCircle
 10
1603.40476
 20
832.0
 30
0.0
 40
1.5
  0
CIRCLE
  5
84
330
A
100
AcDbEntity
  8
0
  6
Continuous
100
AcDbCircle
 10
1603.40476
 20
832.0
 30
0.0
 40
0.75
  0
LINE
  5
85
330
A
100
AcDbEntity
  8
0
  6
Continuous
100
AcDbLine
 10
498.90477
 20
886.430301
 30
0.0
 11
453.0
 21
886.430301
 31
0.0
  0
LINE
  5
86
330
A
100
AcDbEntity
  8
0
  6
Continuous
100
AcDbLine
 10
498.90477
 20
1437.430241
 30
0.0
 11
453.0
 21
1437.430241
 31
0.0
  0
TEXT
  5
87
330
A
100
AcDbEntity
  8
0
  6
Continuous
100
AcDbText
 10
451.0142346015674
 20
1155.087619898277
 30
0.0
 40
15.0
  1
Ｗ
 50
90.0
100
AcDbText
  0
LINE
  5
88
330
A
100
AcDbEntity
  8
0
  6
Continuous
100
AcDbLine
 10
453.0
 20
886.430301
 30
0.0
 11
453.0
 21
1437.430241
 31
0.0
  0
CIRCLE
  5
89
330
A
100
AcDbEntity
  8
0
  6
Continuous
100
AcDbCircle
 10
453.0
 20
886.430301
 30
0.0
 40
1.5
  0
CIRCLE
  5
8A
330
A
100
AcDbEntity
  8
0
  6
Continuous
100
AcDbCircle
 10
453.0
 20
886.430301
 30
0.0
 40
0.75
  0
CIRCLE
  5
8B
330
A
100
AcDbEntity
  8
0
  6
Continuous
100
AcDbCircle
 10
453.0
 20
1437.430241
 30
0.0
 40
1.5
  0
CIRCLE
  5
8C
330
A
100
AcDbEntity
  8
0
  6
Continuous
100
AcDbCircle
 10
453.0
 20
1437.430241
 30
0.0
 40
0.75
  0
TEXT
  5
8D
330
A
100
AcDbEntity
  8
0
  6
Continuous
100
AcDbText
 10
802.414108516802
 20
964.9371026445923
 30
0.0
 40
15.0
  1
アルミクランプレール
100
AcDbText
  0
LEADER
  5
8E
330
A
100
AcDbEntity
  8
0
  6
Continuous
100
AcDbLeader
  3
STANDARD
 76
     3
 10
765.6
 20
911.8
 30
0.0
 10
795.1325078511725
 20
962.9518039999998
 30
0.0
 10
982.4378695958936
 20
962.9518039999998
 30
0.0
1001
ACAD
1000
DSTYLE
1002
{
1070
    41
1040
6.0
1070
     5
1000
_EX_NORM
1070
     6
1000
_EX_NORM
1070
     7
1000
_EX_NORM
1002
}
  0
TEXT
  5
8F
330
A
100
AcDbEntity
  8
0
  6
Continuous
100
AcDbText
 10
2097.134283
 20
1465.315236292583
 30
0.0
 40
15.0
  1
アルミクランプレール
100
AcDbText
  0
LEADER
  5
90
330
A
100
AcDbEntity
  8
0
  6
Continuous
100
AcDbLeader
  3
STANDARD
 76
     3
 10
2059.262829
 20
1406.475051
 30
0.0
 10
2092.051682000001
 20
1463.26701
 30
0.0
 10
2275.82663111069
 20
1463.26701
 30
0.0
1001
ACAD
1000
DSTYLE
1002
{
1070
    41
1040
6.0
1070
     5
1000
_EX_NORM
1070
     6
1000
_EX_NORM
1070
     7
1000
_EX_NORM
1002
}
  0
LINE
  5
91
330
A
100
AcDbEntity
  8
0
  6
Continuous
100
AcDbLine
 10
2045.9984
 20
1437.430241
 30
0.0
 11
2058.0
 21
1437.430241
 31
0.0
  0
LINE
  5
92
330
A
100
AcDbEntity
  8
0
  6
Continuous
100
AcDbLine
 10
2023.0
 20
1437.430241
 30
0.0
 11
2030.9984
 21
1437.430241
 31
0.0
  0
ARC
  5
93
330
A
100
AcDbEntity
  8
0
  6
Continuous
100
AcDbCircle
 10
2058.0
 20
1435.430241
 30
0.0
 40
2.0
100
AcDbArc
 50
307.2
 51
90.0
  0
ARC
  5
94
330
A
100
AcDbEntity
  8
0
  6
Continuous
100
AcDbCircle
 10
2010.0
 20
1423.430241
 30
0.0
 40
1.0
100
AcDbArc
 50
180.0
 51
270.0
  0
ARC
  5
95
330
A
100
AcDbEntity
  8
0
  6
Continuous
100
AcDbCircle
 10
2022.0
 20
1423.430241
 30
0.0
 40
1.0
100
AcDbArc
 50
270.0
 51
0.0
  0
LINE
  5
96
330
A
100
AcDbEntity
  8
0
  6
Continuous
100
AcDbLine
 10
1990.0
 20
1407.430241
 30
0.0
 11
1990.0
 21
1437.430241
 31
0.0
  0
LINE
  5
97
330
A
100
AcDbEntity
  8
0
  6
Continuous
100
AcDbLine
 10
2030.9984
 20
1433.930241
 30
0.0
 11
2045.9984
 21
1433.930241
 31
0.0
  0
LINE
  5
98
330
A
100
AcDbEntity
  8
0
  6
Continuous
100
AcDbLine
 10
1990.0
 20
1407.430241
 30
0.0
 11
1990.0
 21
1354.930241
 31
0.0
  0
LINE
  5
99
330
A
100
AcDbEntity
  8
0
  6
Continuous
100
AcDbLine
 10
2009.0
 20
1437.430241
 30
0.0
 11
2009.0
 21
1357.977341
 31
0.0
  0
LINE
  5
9A
330
A
100
AcDbEntity
  8
0
  6
Continuous
100
AcDbLine
 10
2023.0
 20
1437.430241
 30
0.0
 11
2023.0
 21
1364.530441
 31
0.0
  0
LINE
  5
9B
330
A
100
AcDbEntity
  8
0
  6
Continuous
100
AcDbLine
 10
2030.9984
 20
1368.274441
 30
0.0
 11
2030.9984
 21
1437.430241
 31
0.0
  0
LINE
  5
9C
330
A
100
AcDbEntity
  8
0
  6
Continuous
100
AcDbLine
 10
2045.9984
 20
1375.295741
 30
0.0
 11
2045.9984
 21
1437.430241
 31
0.0
  0
LINE
  5
9D
330
A
100
AcDbEntity
  8
0
  6
Continuous
100
AcDbLine
 10
1890.0
 20
1437.430241
 30
0.0
 11
1940.0
 21
1437.430241
 31
0.0
  0
LINE
  5
9E
330
A
100
AcDbEntity
  8
0
  6
Continuous
100
AcDbLine
 10
2022.0
 20
1434.430241
 30
0.0
 11
2010.0
 21
1434.430241
 31
0.0
  0
ARC
  5
9F
330
A
100
AcDbEntity
  8
0
  6
Continuous
100
AcDbCircle
 10
1957.8
 20
1312.430301
 30
0.0
 40
3.5
100
AcDbArc
 50
270.0
 51
90.0
  0
LINE
  5
A0
330
A
100
AcDbEntity
  8
0
  6
Continuous
100
AcDbLine
 10
1953.55
 20
1315.930301
 30
0.0
 11
1957.8
 21
1315.930301
 31
0.0
  0
LINE
  5
A1
330
A
100
AcDbEntity
  8
0
  6
Continuous
100
AcDbLine
 10
1953.55
 20
1308.930301
 30
0.0
 11
1957.8
 21
1308.930301
 31
0.0
  0
ARC
  5
A2
330
A
100
AcDbEntity
  8
0
  6
Continuous
100
AcDbCircle
 10
1953.55
 20
1323.180301
 30
0.0
 40
7.25
100
AcDbArc
 50
89.99999
 51
270.0
  0
ARC
  5
A3
330
A
100
AcDbEntity
  8
0
  6
Continuous
100
AcDbCircle
 10
1953.55
 20
1301.680301
 30
0.0
 40
7.25
100
AcDbArc
 50
90.0
 51
270.00001
  0
LINE
  5
A4
330
A
100
AcDbEntity
  8
0
  6
Continuous
100
AcDbLine
 10
1954.8
 20
1308.930301
 30
0.0
 11
1954.8
 21
1315.930301
 31
0.0
  0
CIRCLE
  5
A5
330
A
100
AcDbEntity
  8
0
  6
Continuous
100
AcDbCircle
 10
1978.3
 20
1336.430301
 30
0.0
 40
3.049999999999999
  0
ARC
  5
A6
330
A
100
AcDbEntity
  8
0
  6
Continuous
100
AcDbCircle
 10
1978.3
 20
1336.430301
 30
0.0
 40
5.5
100
AcDbArc
 50
0.0
 51
180.0
  0
LINE
  5
A7
330
A
100
AcDbEntity
  8
0
  6
Continuous
100
AcDbLine
 10
1983.8
 20
1336.430301
 30
0.0
 11
1983.8
 21
1330.430301
 31
0.0
  0
LINE
  5
A8
330
A
100
AcDbEntity
  8
0
  6
Continuous
100
AcDbLine
 10
1972.8
 20
1336.430301
 30
0.0
 11
1972.8
 21
1330.430301
 31
0.0
  0
LINE
  5
A9
330
A
100
AcDbEntity
  8
0
  6
Continuous
100
AcDbLine
 10
1985.2
 20
1294.430301
 30
0.0
 11
1985.2
 21
1330.430301
 31
0.0
  0
LINE
  5
AA
330
A
100
AcDbEntity
  8
0
  6
Continuous
100
AcDbLine
 10
1953.55
 20
1294.430301
 30
0.0
 11
1986.8
 21
1294.430301
 31
0.0
  0
LINE
  5
AB
330
A
100
AcDbEntity
  8
0
  6
Continuous
100
AcDbLine
 10
1986.8
 20
1330.430301
 30
0.0
 11
1953.55
 21
1330.430301
 31
0.0
  0
CIRCLE
  5
AC
330
A
100
AcDbEntity
  8
0
  6
Continuous
100
AcDbCircle
 10
1953.55
 20
1323.180301
 30
0.0
 40
2.0
  0
CIRCLE
  5
AD
330
A
100
AcDbEntity
  8
0
  6
Continuous
100
AcDbCircle
 10
1953.55
 20
1323.180301
 30
0.0
 40
1.5
  0
CIRCLE
  5
AE
330
A
100
AcDbEntity
  8
0
  6
Continuous
100
AcDbCircle
 10
1965.1946
 20
1308.247061
 30
0.0
 40
2.0
  0
CIRCLE
  5
AF
330
A
100
AcDbEntity
  8
0
  6
Continuous
100
AcDbCircle
 10
1965.1946
 20
1308.247061
 30
0.0
 40
1.5
  0
LINE
  5
B0
330
A
100
AcDbEntity
  8
0
  6
Continuous
100
AcDbLine
 10
1949.8
 20
1312.430301
 30
0.0
 11
1949.8
 21
1316.975461
 31
0.0
  0
LINE
  5
B1
330
A
100
AcDbEntity
  8
0
  6
Continuous
100
AcDbLine
 10
1949.8
 20
1312.430301
 30
0.0
 11
1950.997
 21
1308.465931
 31
0.0
  0
CIRCLE
  5
B2
330
A
100
AcDbEntity
  8
0
  6
Continuous
100
AcDbCircle
 10
2001.8
 20
1347.430241
 30
0.0
 40
5.0
  0
ARC
  5
B3
330
A
100
AcDbEntity
  8
0
  6
Continuous
100
AcDbCircle
 10
1968.6748
 20
1337.997631
 30
0.0
 40
1.0
100
AcDbArc
 50
115.08359
 51
205.08359
  0
LINE
  5
B4
330
A
100
AcDbEntity
  8
0
  6
Continuous
100
AcDbLine
 10
1967.7691
 20
1337.573691
 30
0.0
 11
1972.4325
 21
1327.611101
 31
0.0
  0
ARC
  5
B5
330
A
100
AcDbEntity
  8
0
  6
Continuous
100
AcDbCircle
 10
1973.3382
 20
1328.035041
 30
0.0
 40
1.0
100
AcDbArc
 50
205.08359
 51
295.08359
  0
LINE
  5
B6
330
A
100
AcDbEntity
  8
0
  6
Continuous
100
AcDbLine
 10
2009.8
 20
1343.998121
 30
0.0
 11
2009.8
 21
1339.930301
 31
0.0
  0
LINE
  5
B7
330
A
100
AcDbEntity
  8
0
  6
Continuous
100
AcDbLine
 10
1984.8
 20
1354.930241
 30
0.0
 11
2002.4904
 21
1354.930241
 31
0.0
  0
LINE
  5
B8
330
A
100
AcDbEntity
  8
0
  6
Continuous
100
AcDbLine
 10
2009.8
 20
1339.930301
 30
0.0
 11
2001.1096
 21
1339.930301
 31
0.0
  0
LINE
  5
B9
330
A
100
AcDbEntity
  8
0
  6
Continuous
100
AcDbLine
 10
1984.8
 20
1346.649641
 30
0.0
 11
1984.8
 21
1354.930241
 31
0.0
  0
LINE
  5
BA
330
A
100
AcDbEntity
  8
0
  6
Continuous
100
AcDbLine
 10
1973.7621
 20
1327.129351
 30
0.0
 11
2057.4483
 21
1366.301541
 31
0.0
  0
ARC
  5
BB
330
A
100
AcDbEntity
  8
0
  6
Continuous
100
AcDbCircle
 10
2056.1765
 20
1369.018641
 30
0.0
 40
3.0
100
AcDbArc
 50
295.08359
 51
25.083594
  0
LINE
  5
BC
330
A
100
AcDbEntity
  8
0
  6
Continuous
100
AcDbLine
 10
2058.8936
 20
1370.290441
 30
0.0
 11
2055.926
 21
1376.630241
 31
0.0
  0
LINE
  5
BD
330
A
100
AcDbEntity
  8
0
  6
Continuous
100
AcDbLine
 10
1968.2509
 20
1338.903321
 30
0.0
 11
2051.9371
 21
1378.075541
 31
0.0
  0
ARC
  5
BE
330
A
100
AcDbEntity
  8
0
  6
Continuous
100
AcDbCircle
 10
2053.2089
 20
1375.358441
 30
0.0
 40
3.0
100
AcDbArc
 50
25.083594
 51
115.08359
  0
LINE
  5
BF
330
A
100
AcDbEntity
  8
0
  6
Continuous
100
AcDbLine
 10
2010.0
 20
1434.430241
 30
0.0
 11
2010.0
 21
1358.445341
 31
0.0
  0
LINE
  5
C0
330
A
100
AcDbEntity
  8
0
  6
Continuous
100
AcDbLine
 10
2022.0
 20
1364.062441
 30
0.0
 11
2022.0
 21
1434.430241
 31
0.0
  0
LINE
  5
C1
330
A
100
AcDbEntity
  8
0
  6
Continuous
100
AcDbLine
 10
1986.8
 20
1412.430241
 30
0.0
 11
1986.8
 21
1432.430241
 31
0.0
  0
LINE
  5
C2
330
A
100
AcDbEntity
  8
0
  6
Continuous
100
AcDbLine
 10
1986.8
 20
1432.430241
 30
0.0
 11
1990.0
 21
1432.430241
 31
0.0
  0
LINE
  5
C3
330
A
100
AcDbEntity
  8
0
  6
Continuous
100
AcDbLine
 10
1986.8
 20
1412.430241
 30
0.0
 11
1986.8
 21
1362.430241
 31
0.0
  0
LINE
  5
C4
330
A
100
AcDbEntity
  8
0
  6
Continuous
100
AcDbLine
 10
1986.8
 20
1362.430241
 30
0.0
 11
1990.0
 21
1362.430241
 31
0.0
  0
LINE
  5
C5
330
A
100
AcDbEntity
  8
0
  6
Continuous
100
AcDbLine
 10
1943.2
 20
1412.430241
 30
0.0
 11
1943.2
 21
1432.430241
 31
0.0
  0
LINE
  5
C6
330
A
100
AcDbEntity
  8
0
  6
Continuous
100
AcDbLine
 10
1943.2
 20
1432.430241
 30
0.0
 11
1940.0
 21
1432.430241
 31
0.0
  0
LINE
  5
C7
330
A
100
AcDbEntity
  8
0
  6
Continuous
100
AcDbLine
 10
1943.2
 20
1412.430241
 30
0.0
 11
1943.2
 21
1362.430241
 31
0.0
  0
LINE
  5
C8
330
A
100
AcDbEntity
  8
0
  6
Continuous
100
AcDbLine
 10
1943.2
 20
1362.430241
 30
0.0
 11
1940.0
 21
1362.430241
 31
0.0
  0
CIRCLE
  5
C9
330
A
100
AcDbEntity
  8
0
  6
Continuous
100
AcDbCircle
 10
1957.8
 20
1312.430301
 30
0.0
 40
3.0
  0
LINE
  5
CA
330
A
100
AcDbEntity
  8
0
  6
Continuous
100
AcDbLine
 10
1957.8
 20
1315.430301
 30
0.0
 11
1943.2
 21
1315.430301
 31
0.0
  0
LINE
  5
CB
330
A
100
AcDbEntity
  8
0
  6
Continuous
100
AcDbLine
 10
1957.8
 20
1309.430301
 30
0.0
 11
1943.2
 21
1309.430301
 31
0.0
  0
LINE
  5
CC
330
A
100
AcDbEntity
  8
0
  6
Continuous
100
AcDbLine
 10
1990.0
 20
1277.430301
 30
0.0
 11
1986.8
 21
1277.430301
 31
0.0
  0
LINE
  5
CD
330
A
100
AcDbEntity
  8
0
  6
Continuous
100
AcDbLine
 10
1986.8
 20
1357.430241
 30
0.0
 11
1990.0
 21
1357.430241
 31
0.0
  0
LINE
  5
CE
330
A
100
AcDbEntity
  8
0
  6
Continuous
100
AcDbLine
 10
1986.8
 20
1277.430301
 30
0.0
 11
1986.8
 21
1333.232181
 31
0.0
  0
LINE
  5
CF
330
A
100
AcDbEntity
  8
0
  6
Continuous
100
AcDbLine
 10
1986.8
 20
1354.930241
 30
0.0
 11
1986.8
 21
1357.430241
 31
0.0
  0
LINE
  5
D0
330
A
100
AcDbEntity
  8
0
  6
Continuous
100
AcDbLine
 10
1943.2
 20
1277.430301
 30
0.0
 11
1940.0
 21
1277.430301
 31
0.0
  0
LINE
  5
D1
330
A
100
AcDbEntity
  8
0
  6
Continuous
100
AcDbLine
 10
1940.0
 20
1357.430241
 30
0.0
 11
1943.2
 21
1357.430241
 31
0.0
  0
LINE
  5
D2
330
A
100
AcDbEntity
  8
0
  6
Continuous
100
AcDbLine
 10
1943.2
 20
1357.430241
 30
0.0
 11
1943.2
 21
1277.430301
 31
0.0
  0
LINE
  5
D3
330
A
100
AcDbEntity
  8
0
  6
Continuous
100
AcDbLine
 10
2060.0
 20
888.430301
 30
0.0
 11
2060.0
 21
1435.430241
 31
0.0
  0
LINE
  5
D4
330
A
100
AcDbEntity
  8
0
  6
Continuous
100
AcDbLine
 10
2045.9984
 20
886.430301
 30
0.0
 11
2058.0
 21
886.430301
 31
0.0
  0
LINE
  5
D5
330
A
100
AcDbEntity
  8
0
  6
Continuous
100
AcDbLine
 10
2030.9984
 20
889.930301
 30
0.0
 11
2030.9984
 21
886.430301
 31
0.0
  0
LINE
  5
D6
330
A
100
AcDbEntity
  8
0
  6
Continuous
100
AcDbLine
 10
2023.0
 20
886.430301
 30
0.0
 11
2030.9984
 21
886.430301
 31
0.0
  0
ARC
  5
D7
330
A
100
AcDbEntity
  8
0
  6
Continuous
100
AcDbCircle
 10
2058.0
 20
888.430301
 30
0.0
 40
2.0
100
AcDbArc
 50
270.0
 51
52.8
  0
LINE
  5
D8
330
A
100
AcDbEntity
  8
0
  6
Continuous
100
AcDbLine
 10
2009.0
 20
886.430301
 30
0.0
 11
2009.0
 21
900.4303009999999
 31
0.0
  0
LINE
  5
D9
330
A
100
AcDbEntity
  8
0
  6
Continuous
100
AcDbLine
 10
2023.0
 20
886.430301
 30
0.0
 11
2023.0
 21
900.4303009999999
 31
0.0
  0
LINE
  5
DA
330
A
100
AcDbEntity
  8
0
  6
Continuous
100
AcDbLine
 10
2045.9984
 20
889.930301
 30
0.0
 11
2045.9984
 21
886.430301
 31
0.0
  0
LINE
  5
DB
330
A
100
AcDbEntity
  8
0
  6
Continuous
100
AcDbLine
 10
1990.0
 20
916.4303009999999
 30
0.0
 11
1990.0
 21
886.430301
 31
0.0
  0
LINE
  5
DC
330
A
100
AcDbEntity
  8
0
  6
Continuous
100
AcDbLine
 10
2030.9984
 20
889.930301
 30
0.0
 11
2045.9984
 21
889.930301
 31
0.0
  0
LINE
  5
DD
330
A
100
AcDbEntity
  8
0
  6
Continuous
100
AcDbLine
 10
2009.0
 20
965.8832509999999
 30
0.0
 11
2009.0
 21
900.4303009999999
 31
0.0
  0
LINE
  5
DE
330
A
100
AcDbEntity
  8
0
  6
Continuous
100
AcDbLine
 10
2023.0
 20
959.3300710000001
 30
0.0
 11
2023.0
 21
900.4303009999999
 31
0.0
  0
LINE
  5
DF
330
A
100
AcDbEntity
  8
0
  6
Continuous
100
AcDbLine
 10
2030.9984
 20
889.930301
 30
0.0
 11
2030.9984
 21
955.5861210000001
 31
0.0
  0
LINE
  5
E0
330
A
100
AcDbEntity
  8
0
  6
Continuous
100
AcDbLine
 10
2045.9984
 20
889.930301
 30
0.0
 11
2045.9984
 21
948.564851
 31
0.0
  0
LINE
  5
E1
330
A
100
AcDbEntity
  8
0
  6
Continuous
100
AcDbLine
 10
1990.0
 20
968.9303009999999
 30
0.0
 11
1990.0
 21
916.4303009999999
 31
0.0
  0
LINE
  5
E2
330
A
100
AcDbEntity
  8
0
  6
Continuous
100
AcDbLine
 10
1990.0
 20
1334.730041
 30
0.0
 11
1990.0
 21
989.1305609999999
 31
0.0
  0
LINE
  5
E3
330
A
100
AcDbEntity
  8
0
  6
Continuous
100
AcDbLine
 10
2009.0
 20
1339.930301
 30
0.0
 11
2009.0
 21
983.930301
 31
0.0
  0
LINE
  5
E4
330
A
100
AcDbEntity
  8
0
  6
Continuous
100
AcDbLine
 10
2023.0
 20
1350.176841
 30
0.0
 11
2023.0
 21
973.6837609999998
 31
0.0
  0
LINE
  5
E5
330
A
100
AcDbEntity
  8
0
  6
Continuous
100
AcDbLine
 10
2030.9984
 20
969.939821
 30
0.0
 11
2030.9984
 21
1353.920741
 31
0.0
  0
LINE
  5
E6
330
A
100
AcDbEntity
  8
0
  6
Continuous
100
AcDbLine
 10
2045.9984
 20
962.9185409999999
 30
0.0
 11
2045.9984
 21
1360.942041
 31
0.0
  0
LINE
  5
E7
330
A
100
AcDbEntity
  8
0
  6
Continuous
100
AcDbLine
 10
1890.0
 20
886.430301
 30
0.0
 11
1940.0
 21
886.430301
 31
0.0
  0
LINE
  5
E8
330
A
100
AcDbEntity
  8
0
  6
Continuous
100
AcDbLine
 10
2022.0
 20
889.4303009999999
 30
0.0
 11
2010.0
 21
889.4303009999999
 31
0.0
  0
LINE
  5
E9
330
A
100
AcDbEntity
  8
0
  6
Continuous
100
AcDbLine
 10
2010.0
 20
889.4303009999999
 30
0.0
 11
2010.0
 21
901.430301
 31
0.0
  0
LINE
  5
EA
330
A
100
AcDbEntity
  8
0
  6
Continuous
100
AcDbLine
 10
2022.0
 20
901.430301
 30
0.0
 11
2022.0
 21
889.4303009999999
 31
0.0
  0
ARC
  5
EB
330
A
100
AcDbEntity
  8
0
  6
Continuous
100
AcDbCircle
 10
1957.8
 20
1011.430301
 30
0.0
 40
3.5
100
AcDbArc
 50
270.0
 51
90.0
  0
LINE
  5
EC
330
A
100
AcDbEntity
  8
0
  6
Continuous
100
AcDbLine
 10
1953.55
 20
1007.930301
 30
0.0
 11
1957.8
 21
1007.930301
 31
0.0
  0
LINE
  5
ED
330
A
100
AcDbEntity
  8
0
  6
Continuous
100
AcDbLine
 10
1953.55
 20
1014.930301
 30
0.0
 11
1957.8
 21
1014.930301
 31
0.0
  0
ARC
  5
EE
330
A
100
AcDbEntity
  8
0
  6
Continuous
100
AcDbCircle
 10
1953.55
 20
1000.680301
 30
0.0
 40
7.25
100
AcDbArc
 50
90.0
 51
270.00001
  0
ARC
  5
EF
330
A
100
AcDbEntity
  8
0
  6
Continuous
100
AcDbCircle
 10
1953.55
 20
1022.180301
 30
0.0
 40
7.25
100
AcDbArc
 50
89.99999
 51
270.0
  0
LINE
  5
F0
330
A
100
AcDbEntity
  8
0
  6
Continuous
100
AcDbLine
 10
1954.8
 20
1014.930301
 30
0.0
 11
1954.8
 21
1007.930301
 31
0.0
  0
CIRCLE
  5
F1
330
A
100
AcDbEntity
  8
0
  6
Continuous
100
AcDbCircle
 10
1978.3
 20
987.430301
 30
0.0
 40
3.049999999999999
  0
ARC
  5
F2
330
A
100
AcDbEntity
  8
0
  6
Continuous
100
AcDbCircle
 10
1978.3
 20
987.430301
 30
0.0
 40
5.5
100
AcDbArc
 50
180.0
 51
0.0
  0
LINE
  5
F3
330
A
100
AcDbEntity
  8
0
  6
Continuous
100
AcDbLine
 10
1983.8
 20
987.430301
 30
0.0
 11
1983.8
 21
993.430301
 31
0.0
  0
LINE
  5
F4
330
A
100
AcDbEntity
  8
0
  6
Continuous
100
AcDbLine
 10
1972.8
 20
987.430301
 30
0.0
 11
1972.8
 21
993.430301
 31
0.0
  0
LINE
  5
F5
330
A
100
AcDbEntity
  8
0
  6
Continuous
100
AcDbLine
 10
1978.3
 20
998.249681
 30
0.0
 11
1978.3
 21
977.6814009999998
 31
0.0
  0
LINE
  5
F6
330
A
100
AcDbEntity
  8
0
  6
Continuous
100
AcDbLine
 10
1987.951
 20
987.430301
 30
0.0
 11
1968.258
 21
987.430301
 31
0.0
  0
LINE
  5
F7
330
A
100
AcDbEntity
  8
0
  6
Continuous
100
AcDbLine
 10
1985.2
 20
1029.430301
 30
0.0
 11
1985.2
 21
993.430301
 31
0.0
  0
LINE
  5
F8
330
A
100
AcDbEntity
  8
0
  6
Continuous
100
AcDbLine
 10
1953.55
 20
1029.430301
 30
0.0
 11
1986.8
 21
1029.430301
 31
0.0
  0
LINE
  5
F9
330
A
100
AcDbEntity
  8
0
  6
Continuous
100
AcDbLine
 10
1986.8
 20
993.430301
 30
0.0
 11
1953.55
 21
993.430301
 31
0.0
  0
CIRCLE
  5
FA
330
A
100
AcDbEntity
  8
0
  6
Continuous
100
AcDbCircle
 10
1953.55
 20
1000.680301
 30
0.0
 40
2.0
  0
CIRCLE
  5
FB
330
A
100
AcDbEntity
  8
0
  6
Continuous
100
AcDbCircle
 10
1953.55
 20
1000.680301
 30
0.0
 40
1.5
  0
CIRCLE
  5
FC
330
A
100
AcDbEntity
  8
0
  6
Continuous
100
AcDbCircle
 10
1965.1946
 20
1015.613541
 30
0.0
 40
2.0
  0
CIRCLE
  5
FD
330
A
100
AcDbEntity
  8
0
  6
Continuous
100
AcDbCircle
 10
1965.1946
 20
1015.613541
 30
0.0
 40
1.5
  0
LINE
  5
FE
330
A
100
AcDbEntity
  8
0
  6
Continuous
100
AcDbLine
 10
1949.8
 20
1011.430301
 30
0.0
 11
1949.8
 21
1006.885141
 31
0.0
  0
LINE
  5
FF
330
A
100
AcDbEntity
  8
0
  6
Continuous
100
AcDbLine
 10
1949.8
 20
1011.430301
 30
0.0
 11
1950.997
 21
1015.394671
 31
0.0
  0
CIRCLE
  5
100
330
A
100
AcDbEntity
  8
0
  6
Continuous
100
AcDbCircle
 10
2001.8
 20
976.430301
 30
0.0
 40
5.0
  0
ARC
  5
101
330
A
100
AcDbEntity
  8
0
  6
Continuous
100
AcDbCircle
 10
1968.6748
 20
985.862971
 30
0.0
 40
1.0
100
AcDbArc
 50
154.9164
 51
244.9164
  0
LINE
  5
102
330
A
100
AcDbEntity
  8
0
  6
Continuous
100
AcDbLine
 10
1967.7691
 20
986.286911
 30
0.0
 11
1972.4325
 21
996.2495009999999
 31
0.0
  0
ARC
  5
103
330
A
100
AcDbEntity
  8
0
  6
Continuous
100
AcDbCircle
 10
1973.3382
 20
995.825561
 30
0.0
 40
1.0
100
AcDbArc
 50
64.91640600000001
 51
154.9164
  0
LINE
  5
104
330
A
100
AcDbEntity
  8
0
  6
Continuous
100
AcDbLine
 10
2009.8
 20
979.8624809999999
 30
0.0
 11
2009.8
 21
983.930301
 31
0.0
  0
LINE
  5
105
330
A
100
AcDbEntity
  8
0
  6
Continuous
100
AcDbLine
 10
1984.8
 20
968.9303009999999
 30
0.0
 11
2002.4904
 21
968.9303009999999
 31
0.0
  0
LINE
  5
106
330
A
100
AcDbEntity
  8
0
  6
Continuous
100
AcDbLine
 10
2009.8
 20
983.930301
 30
0.0
 11
2001.1096
 21
983.930301
 31
0.0
  0
LINE
  5
107
330
A
100
AcDbEntity
  8
0
  6
Continuous
100
AcDbLine
 10
1984.8
 20
977.2109109999998
 30
0.0
 11
1984.8
 21
968.9303009999999
 31
0.0
  0
LINE
  5
108
330
A
100
AcDbEntity
  8
0
  6
Continuous
100
AcDbLine
 10
1973.7621
 20
996.7312509999999
 30
0.0
 11
2057.4483
 21
957.559011
 31
0.0
  0
ARC
  5
109
330
A
100
AcDbEntity
  8
0
  6
Continuous
100
AcDbCircle
 10
2056.1765
 20
954.8419410000001
 30
0.0
 40
3.0
100
AcDbArc
 50
334.9164
 51
64.91640600000001
  0
LINE
  5
10A
330
A
100
AcDbEntity
  8
0
  6
Continuous
100
AcDbLine
 10
2058.8936
 20
953.570121
 30
0.0
 11
2055.926
 21
947.2302909999999
 31
0.0
  0
LINE
  5
10B
330
A
100
AcDbEntity
  8
0
  6
Continuous
100
AcDbLine
 10
1968.2509
 20
984.9572810000001
 30
0.0
 11
2051.9371
 21
945.785041
 31
0.0
  0
ARC
  5
10C
330
A
100
AcDbEntity
  8
0
  6
Continuous
100
AcDbCircle
 10
2053.2089
 20
948.5021109999999
 30
0.0
 40
3.0
100
AcDbArc
 50
244.9164
 51
334.9164
  0
LINE
  5
10D
330
A
100
AcDbEntity
  8
0
  6
Continuous
100
AcDbLine
 10
2010.0
 20
965.415171
 30
0.0
 11
2010.0
 21
901.430301
 31
0.0
  0
LINE
  5
10E
330
A
100
AcDbEntity
  8
0
  6
Continuous
100
AcDbLine
 10
2022.0
 20
901.430301
 30
0.0
 11
2022.0
 21
959.798151
 31
0.0
  0
LINE
  5
10F
330
A
100
AcDbEntity
  8
0
  6
Continuous
100
AcDbLine
 10
2010.0
 20
1344.091741
 30
0.0
 11
2010.0
 21
979.7688609999999
 31
0.0
  0
LINE
  5
110
330
A
100
AcDbEntity
  8
0
  6
Continuous
100
AcDbLine
 10
2022.0
 20
974.1518409999999
 30
0.0
 11
2022.0
 21
1349.708741
 31
0.0
  0
LINE
  5
111
330
A
100
AcDbEntity
  8
0
  6
Continuous
100
AcDbLine
 10
1986.8
 20
911.430301
 30
0.0
 11
1986.8
 21
891.4303009999999
 31
0.0
  0
LINE
  5
112
330
A
100
AcDbEntity
  8
0
  6
Continuous
100
AcDbLine
 10
1986.8
 20
891.4303009999999
 30
0.0
 11
1990.0
 21
891.4303009999999
 31
0.0
  0
LINE
  5
113
330
A
100
AcDbEntity
  8
0
  6
Continuous
100
AcDbLine
 10
1986.8
 20
911.430301
 30
0.0
 11
1986.8
 21
961.430301
 31
0.0
  0
LINE
  5
114
330
A
100
AcDbEntity
  8
0
  6
Continuous
100
AcDbLine
 10
1986.8
 20
961.430301
 30
0.0
 11
1990.0
 21
961.430301
 31
0.0
  0
LINE
  5
115
330
A
100
AcDbEntity
  8
0
  6
Continuous
100
AcDbLine
 10
1943.2
 20
911.430301
 30
0.0
 11
1943.2
 21
891.4303009999999
 31
0.0
  0
LINE
  5
116
330
A
100
AcDbEntity
  8
0
  6
Continuous
100
AcDbLine
 10
1943.2
 20
891.4303009999999
 30
0.0
 11
1940.0
 21
891.4303009999999
 31
0.0
  0
LINE
  5
117
330
A
100
AcDbEntity
  8
0
  6
Continuous
100
AcDbLine
 10
1943.2
 20
911.430301
 30
0.0
 11
1943.2
 21
961.430301
 31
0.0
  0
LINE
  5
118
330
A
100
AcDbEntity
  8
0
  6
Continuous
100
AcDbLine
 10
1943.2
 20
961.430301
 30
0.0
 11
1940.0
 21
961.430301
 31
0.0
  0
CIRCLE
  5
119
330
A
100
AcDbEntity
  8
0
  6
Continuous
100
AcDbCircle
 10
1957.8
 20
1011.430301
 30
0.0
 40
3.0
  0
LINE
  5
11A
330
A
100
AcDbEntity
  8
0
  6
Continuous
100
AcDbLine
 10
1957.8
 20
1008.430301
 30
0.0
 11
1943.2
 21
1008.430301
 31
0.0
  0
LINE
  5
11B
330
A
100
AcDbEntity
  8
0
  6
Continuous
100
AcDbLine
 10
1957.8
 20
1014.430301
 30
0.0
 11
1943.2
 21
1014.430301
 31
0.0
  0
LINE
  5
11C
330
A
100
AcDbEntity
  8
0
  6
Continuous
100
AcDbLine
 10
1990.0
 20
1046.430301
 30
0.0
 11
1986.8
 21
1046.430301
 31
0.0
  0
LINE
  5
11D
330
A
100
AcDbEntity
  8
0
  6
Continuous
100
AcDbLine
 10
1986.8
 20
966.4303009999999
 30
0.0
 11
1990.0
 21
966.4303009999999
 31
0.0
  0
LINE
  5
11E
330
A
100
AcDbEntity
  8
0
  6
Continuous
100
AcDbLine
 10
1986.8
 20
1046.430301
 30
0.0
 11
1986.8
 21
990.628421
 31
0.0
  0
LINE
  5
11F
330
A
100
AcDbEntity
  8
0
  6
Continuous
100
AcDbLine
 10
1986.8
 20
968.9303009999999
 30
0.0
 11
1986.8
 21
966.4303009999999
 31
0.0
  0
LINE
  5
120
330
A
100
AcDbEntity
  8
0
  6
Continuous
100
AcDbLine
 10
1940.0
 20
966.4303009999999
 30
0.0
 11
1943.2
 21
966.4303009999999
 31
0.0
  0
LINE
  5
121
330
A
100
AcDbEntity
  8
0
  6
Continuous
100
AcDbLine
 10
1943.2
 20
1046.430301
 30
0.0
 11
1940.0
 21
1046.430301
 31
0.0
  0
LINE
  5
122
330
A
100
AcDbEntity
  8
0
  6
Continuous
100
AcDbLine
 10
1943.2
 20
966.4303009999999
 30
0.0
 11
1943.2
 21
1046.430301
 31
0.0
  0
LINE
  5
123
330
A
100
AcDbEntity
  8
0
  6
DASHDOT
100
AcDbLine
 10
1968.8606
 20
991.8487109999999
 30
0.0
 11
2061.7498
 21
948.368701
 31
0.0
  0
LINE
  5
124
330
A
100
AcDbEntity
  8
0
  6
DASHDOT
100
AcDbLine
 10
2016.0
 20
882.726391
 30
0.0
 11
2016.0
 21
909.235911
 31
0.0
  0
LINE
  5
125
330
A
100
AcDbEntity
  8
0
  6
DASHDOT
100
AcDbLine
 10
2002.7674
 20
901.430301
 30
0.0
 11
1979.6739
 21
901.430301
 31
0.0
  0
LINE
  5
126
330
A
100
AcDbEntity
  8
0
  6
DASHDOT
100
AcDbLine
 10
1981.1791
 20
911.430301
 30
0.0
 11
1998.5723
 21
911.430301
 31
0.0
  0
LINE
  5
127
330
A
100
AcDbEntity
  8
0
  6
DASHDOT
100
AcDbLine
 10
1981.1791
 20
951.430301
 30
0.0
 11
2002.4365
 21
951.430301
 31
0.0
  0
LINE
  5
128
330
A
100
AcDbEntity
  8
0
  6
DASHDOT
100
AcDbLine
 10
2001.8
 20
988.4720810000001
 30
0.0
 11
2001.8
 21
964.647771
 31
0.0
  0
LINE
  5
129
330
A
100
AcDbEntity
  8
0
  6
DASHDOT
100
AcDbLine
 10
2013.8417
 20
976.430311
 30
0.0
 11
1990.0174
 21
976.430311
 31
0.0
  0
LINE
  5
12A
330
A
100
AcDbEntity
  8
0
  6
DASHDOT
100
AcDbLine
 10
1957.8
 20
1019.177111
 30
0.0
 11
1957.8
 21
1003.276811
 31
0.0
  0
LINE
  5
12B
330
A
100
AcDbEntity
  8
0
  6
DASHDOT
100
AcDbLine
 10
2001.0542
 20
1011.430301
 30
0.0
 11
1931.3036
 21
1011.430301
 31
0.0
  0
LINE
  5
12C
330
A
100
AcDbEntity
  8
0
  6
DASHDOT
100
AcDbLine
 10
1956.9345
 20
1000.680301
 30
0.0
 11
1949.7867
 21
1000.680301
 31
0.0
  0
LINE
  5
12D
330
A
100
AcDbEntity
  8
0
  6
DASHDOT
100
AcDbLine
 10
1953.55
 20
997.073081
 30
0.0
 11
1953.55
 21
1004.585601
 31
0.0
  0
LINE
  5
12E
330
A
100
AcDbEntity
  8
0
  6
DASHDOT
100
AcDbLine
 10
1968.5792
 20
1015.613541
 30
0.0
 11
1961.4313
 21
1015.613541
 31
0.0
  0
LINE
  5
12F
330
A
100
AcDbEntity
  8
0
  6
DASHDOT
100
AcDbLine
 10
1965.1946
 20
1012.006321
 30
0.0
 11
1965.1946
 21
1019.518841
 31
0.0
  0
LINE
  5
130
330
A
100
AcDbEntity
  8
0
  6
DASHDOT
100
AcDbLine
 10
1948.4066
 20
1039.430301
 30
0.0
 11
1929.4698
 21
1039.430301
 31
0.0
  0
LINE
  5
131
330
A
100
AcDbEntity
  8
0
  6
DASHDOT
100
AcDbLine
 10
1948.8864
 20
973.4303009999999
 30
0.0
 11
1929.4698
 21
973.4303009999999
 31
0.0
  0
LINE
  5
132
330
A
100
AcDbEntity
  8
0
  6
DASHDOT
100
AcDbLine
 10
1948.8208
 20
951.430301
 30
0.0
 11
1927.5634
 21
951.430301
 31
0.0
  0
LINE
  5
133
330
A
100
AcDbEntity
  8
0
  6
DASHDOT
100
AcDbLine
 10
1953.2382
 20
901.430301
 30
0.0
 11
1878.2589
 21
901.430301
 31
0.0
  0
LINE
  5
134
330
A
100
AcDbEntity
  8
0
  6
DASHDOT
100
AcDbLine
 10
1948.8208
 20
911.430301
 30
0.0
 11
1931.4276
 21
911.430301
 31
0.0
  0
LINE
  5
135
330
A
100
AcDbEntity
  8
0
  6
DASHDOT
100
AcDbLine
 10
1993.1543
 20
1021.430301
 30
0.0
 11
1980.1467
 21
1021.430301
 31
0.0
  0
LINE
  5
136
330
A
100
AcDbEntity
  8
0
  6
DASHDOT
100
AcDbLine
 10
1993.1543
 20
1001.430301
 30
0.0
 11
1980.1467
 21
1001.430301
 31
0.0
  0
LINE
  5
137
330
A
100
AcDbEntity
  8
0
  6
DASHDOT
100
AcDbLine
 10
1980.5339
 20
1039.430301
 30
0.0
 11
1998.5302
 21
1039.430301
 31
0.0
  0
LINE
  5
138
330
A
100
AcDbEntity
  8
0
  6
DASHDOT
100
AcDbLine
 10
1980.5339
 20
1284.430301
 30
0.0
 11
1998.5302
 21
1284.430301
 31
0.0
  0
LINE
  5
139
330
A
100
AcDbEntity
  8
0
  6
DASHDOT
100
AcDbLine
 10
1948.4066
 20
1284.430301
 30
0.0
 11
1929.4698
 21
1284.430301
 31
0.0
  0
LINE
  5
13A
330
A
100
AcDbEntity
  8
0
  6
DASHDOT
100
AcDbLine
 10
2001.0542
 20
1312.430301
 30
0.0
 11
1931.3036
 21
1312.430301
 31
0.0
  0
LINE
  5
13B
330
A
100
AcDbEntity
  8
0
  6
DASHDOT
100
AcDbLine
 10
1957.8
 20
1304.683491
 30
0.0
 11
1957.8
 21
1320.583791
 31
0.0
  0
LINE
  5
13C
330
A
100
AcDbEntity
  8
0
  6
DASHDOT
100
AcDbLine
 10
1968.5792
 20
1308.247061
 30
0.0
 11
1961.4313
 21
1308.247061
 31
0.0
  0
LINE
  5
13D
330
A
100
AcDbEntity
  8
0
  6
DASHDOT
100
AcDbLine
 10
1965.1946
 20
1311.854281
 30
0.0
 11
1965.1946
 21
1304.341761
 31
0.0
  0
LINE
  5
13E
330
A
100
AcDbEntity
  8
0
  6
DASHDOT
100
AcDbLine
 10
1993.1543
 20
1302.430301
 30
0.0
 11
1980.1467
 21
1302.430301
 31
0.0
  0
LINE
  5
13F
330
A
100
AcDbEntity
  8
0
  6
DASHDOT
100
AcDbLine
 10
1993.1543
 20
1322.430301
 30
0.0
 11
1980.1467
 21
1322.430301
 31
0.0
  0
LINE
  5
140
330
A
100
AcDbEntity
  8
0
  6
DASHDOT
100
AcDbLine
 10
1978.3
 20
1325.610921
 30
0.0
 11
1978.3
 21
1346.179141
 31
0.0
  0
LINE
  5
141
330
A
100
AcDbEntity
  8
0
  6
DASHDOT
100
AcDbLine
 10
1968.8606
 20
1332.011891
 30
0.0
 11
2061.7498
 21
1375.491841
 31
0.0
  0
LINE
  5
142
330
A
100
AcDbEntity
  8
0
  6
DASHDOT
100
AcDbLine
 10
1987.951
 20
1336.430301
 30
0.0
 11
1968.258
 21
1336.430301
 31
0.0
  0
LINE
  5
143
330
A
100
AcDbEntity
  8
0
  6
DASHDOT
100
AcDbLine
 10
1956.9345
 20
1323.180301
 30
0.0
 11
1949.7867
 21
1323.180301
 31
0.0
  0
LINE
  5
144
330
A
100
AcDbEntity
  8
0
  6
DASHDOT
100
AcDbLine
 10
1953.55
 20
1326.787521
 30
0.0
 11
1953.55
 21
1319.275001
 31
0.0
  0
LINE
  5
145
330
A
100
AcDbEntity
  8
0
  6
DASHDOT
100
AcDbLine
 10
1948.8864
 20
1350.430241
 30
0.0
 11
1929.4698
 21
1350.430241
 31
0.0
  0
LINE
  5
146
330
A
100
AcDbEntity
  8
0
  6
DASHDOT
100
AcDbLine
 10
1948.8208
 20
1372.430241
 30
0.0
 11
1927.5634
 21
1372.430241
 31
0.0
  0
LINE
  5
147
330
A
100
AcDbEntity
  8
0
  6
DASHDOT
100
AcDbLine
 10
1948.8208
 20
1412.430241
 30
0.0
 11
1931.4276
 21
1412.430241
 31
0.0
  0
LINE
  5
148
330
A
100
AcDbEntity
  8
0
  6
DASHDOT
100
AcDbLine
 10
1953.2382
 20
1422.430241
 30
0.0
 11
1878.2589
 21
1422.430241
 31
0.0
  0
LINE
  5
149
330
A
100
AcDbEntity
  8
0
  6
DASHDOT
100
AcDbLine
 10
1981.1791
 20
1412.430241
 30
0.0
 11
1998.5723
 21
1412.430241
 31
0.0
  0
LINE
  5
14A
330
A
100
AcDbEntity
  8
0
  6
DASHDOT
100
AcDbLine
 10
2002.7674
 20
1422.430241
 30
0.0
 11
1979.6739
 21
1422.430241
 31
0.0
  0
LINE
  5
14B
330
A
100
AcDbEntity
  8
0
  6
DASHDOT
100
AcDbLine
 10
2016.0
 20
1441.134141
 30
0.0
 11
2016.0
 21
1414.624641
 31
0.0
  0
LINE
  5
14C
330
A
100
AcDbEntity
  8
0
  6
DASHDOT
100
AcDbLine
 10
1981.1791
 20
1372.430241
 30
0.0
 11
2002.4365
 21
1372.430241
 31
0.0
  0
LINE
  5
14D
330
A
100
AcDbEntity
  8
0
  6
DASHDOT
100
AcDbLine
 10
2013.8417
 20
1347.430241
 30
0.0
 11
1990.0174
 21
1347.430241
 31
0.0
  0
LINE
  5
14E
330
A
100
AcDbEntity
  8
0
  6
DASHDOT
100
AcDbLine
 10
2001.8
 20
1335.388521
 30
0.0
 11
2001.8
 21
1359.212741
 31
0.0
  0
LINE
  5
14F
330
A
100
AcDbEntity
  8
0
  6
DASHDOT
100
AcDbLine
 10
1980.5339
 20
1350.430241
 30
0.0
 11
1998.6143
 21
1350.430241
 31
0.0
  0
LINE
  5
150
330
A
100
AcDbEntity
  8
0
  6
DOT
100
AcDbLine
 10
1940.0
 20
916.4303009999999
 30
0.0
 11
1890.0
 21
916.4303009999999
 31
0.0
  0
LINE
  5
151
330
A
100
AcDbEntity
  8
0
  6
DOT
100
AcDbLine
 10
1904.0
 20
892.9303009999999
 30
0.0
 11
1904.0
 21
890.930301
 31
0.0
  0
LINE
  5
152
330
A
100
AcDbEntity
  8
0
  6
DOT
100
AcDbLine
 10
1904.0
 20
909.9303009999999
 30
0.0
 11
1904.0
 21
911.9303009999999
 31
0.0
  0
LINE
  5
153
330
A
100
AcDbEntity
  8
0
  6
DOT
100
AcDbLine
 10
1926.0
 20
892.9303009999999
 30
0.0
 11
1926.0
 21
890.930301
 31
0.0
  0
LINE
  5
154
330
A
100
AcDbEntity
  8
0
  6
DOT
100
AcDbLine
 10
1926.0
 20
909.9303009999999
 30
0.0
 11
1926.0
 21
911.9303009999999
 31
0.0
  0
LINE
  5
155
330
A
100
AcDbEntity
  8
0
  6
DOT
100
AcDbLine
 10
1900.5
 20
888.430301
 30
0.0
 11
1929.5
 21
888.430301
 31
0.0
  0
LINE
  5
156
330
A
100
AcDbEntity
  8
0
  6
DOT
100
AcDbLine
 10
1929.5
 20
890.930301
 30
0.0
 11
1929.5
 21
888.430301
 31
0.0
  0
LINE
  5
157
330
A
100
AcDbEntity
  8
0
  6
DOT
100
AcDbLine
 10
1900.5
 20
914.4303009999999
 30
0.0
 11
1929.5
 21
914.4303009999999
 31
0.0
  0
LINE
  5
158
330
A
100
AcDbEntity
  8
0
  6
DOT
100
AcDbLine
 10
1929.5
 20
911.9303009999999
 30
0.0
 11
1929.5
 21
914.4303009999999
 31
0.0
  0
LINE
  5
159
330
A
100
AcDbEntity
  8
0
  6
DOT
100
AcDbLine
 10
1929.5
 20
909.9303009999999
 30
0.0
 11
1929.5
 21
892.9303009999999
 31
0.0
  0
LINE
  5
15A
330
A
100
AcDbEntity
  8
0
  6
DOT
100
AcDbLine
 10
1931.5
 20
890.930301
 30
0.0
 11
1931.5
 21
911.9303009999999
 31
0.0
  0
LINE
  5
15B
330
A
100
AcDbEntity
  8
0
  6
DOT
100
AcDbLine
 10
1931.5
 20
911.9303009999999
 30
0.0
 11
1936.5
 21
911.9303009999999
 31
0.0
  0
LINE
  5
15C
330
A
100
AcDbEntity
  8
0
  6
DOT
100
AcDbLine
 10
1936.5
 20
911.9303009999999
 30
0.0
 11
1936.5
 21
904.930301
 31
0.0
  0
LINE
  5
15D
330
A
100
AcDbEntity
  8
0
  6
DOT
100
AcDbLine
 10
1926.0
 20
911.9303009999999
 30
0.0
 11
1929.5
 21
911.9303009999999
 31
0.0
  0
LINE
  5
15E
330
A
100
AcDbEntity
  8
0
  6
DOT
100
AcDbLine
 10
1929.5
 20
909.9303009999999
 30
0.0
 11
1926.0
 21
909.9303009999999
 31
0.0
  0
LINE
  5
15F
330
A
100
AcDbEntity
  8
0
  6
DOT
100
AcDbLine
 10
1931.5
 20
890.930301
 30
0.0
 11
1936.5
 21
890.930301
 31
0.0
  0
LINE
  5
160
330
A
100
AcDbEntity
  8
0
  6
DOT
100
AcDbLine
 10
1936.5
 20
890.930301
 30
0.0
 11
1936.5
 21
897.930301
 31
0.0
  0
LINE
  5
161
330
A
100
AcDbEntity
  8
0
  6
DOT
100
AcDbLine
 10
1926.0
 20
890.930301
 30
0.0
 11
1929.5
 21
890.930301
 31
0.0
  0
LINE
  5
162
330
A
100
AcDbEntity
  8
0
  6
DOT
100
AcDbLine
 10
1929.5
 20
892.9303009999999
 30
0.0
 11
1926.0
 21
892.9303009999999
 31
0.0
  0
LINE
  5
163
330
A
100
AcDbEntity
  8
0
  6
DOT
100
AcDbLine
 10
1900.5
 20
909.9303009999999
 30
0.0
 11
1900.5
 21
892.9303009999999
 31
0.0
  0
LINE
  5
164
330
A
100
AcDbEntity
  8
0
  6
DOT
100
AcDbLine
 10
1898.5
 20
890.930301
 30
0.0
 11
1898.5
 21
911.9303009999999
 31
0.0
  0
LINE
  5
165
330
A
100
AcDbEntity
  8
0
  6
DOT
100
AcDbLine
 10
1898.5
 20
911.9303009999999
 30
0.0
 11
1893.5
 21
911.9303009999999
 31
0.0
  0
LINE
  5
166
330
A
100
AcDbEntity
  8
0
  6
DOT
100
AcDbLine
 10
1893.5
 20
904.930301
 30
0.0
 11
1890.0
 21
904.930301
 31
0.0
  0
LINE
  5
167
330
A
100
AcDbEntity
  8
0
  6
DOT
100
AcDbLine
 10
1893.5
 20
911.9303009999999
 30
0.0
 11
1893.5
 21
904.930301
 31
0.0
  0
LINE
  5
168
330
A
100
AcDbEntity
  8
0
  6
DOT
100
AcDbLine
 10
1900.5
 20
911.9303009999999
 30
0.0
 11
1900.5
 21
914.4303009999999
 31
0.0
  0
LINE
  5
169
330
A
100
AcDbEntity
  8
0
  6
DOT
100
AcDbLine
 10
1904.0
 20
911.9303009999999
 30
0.0
 11
1900.5
 21
911.9303009999999
 31
0.0
  0
LINE
  5
16A
330
A
100
AcDbEntity
  8
0
  6
DOT
100
AcDbLine
 10
1900.5
 20
909.9303009999999
 30
0.0
 11
1904.0
 21
909.9303009999999
 31
0.0
  0
LINE
  5
16B
330
A
100
AcDbEntity
  8
0
  6
DOT
100
AcDbLine
 10
1898.5
 20
890.930301
 30
0.0
 11
1893.5
 21
890.930301
 31
0.0
  0
LINE
  5
16C
330
A
100
AcDbEntity
  8
0
  6
DOT
100
AcDbLine
 10
1893.5
 20
897.930301
 30
0.0
 11
1890.0
 21
897.930301
 31
0.0
  0
LINE
  5
16D
330
A
100
AcDbEntity
  8
0
  6
DOT
100
AcDbLine
 10
1893.5
 20
890.930301
 30
0.0
 11
1893.5
 21
897.930301
 31
0.0
  0
LINE
  5
16E
330
A
100
AcDbEntity
  8
0
  6
DOT
100
AcDbLine
 10
1900.5
 20
890.930301
 30
0.0
 11
1900.5
 21
888.430301
 31
0.0
  0
LINE
  5
16F
330
A
100
AcDbEntity
  8
0
  6
DOT
100
AcDbLine
 10
1904.0
 20
890.930301
 30
0.0
 11
1900.5
 21
890.930301
 31
0.0
  0
LINE
  5
170
330
A
100
AcDbEntity
  8
0
  6
DOT
100
AcDbLine
 10
1900.5
 20
892.9303009999999
 30
0.0
 11
1904.0
 21
892.9303009999999
 31
0.0
  0
LINE
  5
171
330
A
100
AcDbEntity
  8
0
  6
DOT
100
AcDbLine
 10
1936.5
 20
904.930301
 30
0.0
 11
1940.0
 21
904.930301
 31
0.0
  0
LINE
  5
172
330
A
100
AcDbEntity
  8
0
  6
DOT
100
AcDbLine
 10
1936.5
 20
897.930301
 30
0.0
 11
1940.0
 21
897.930301
 31
0.0
  0
LINE
  5
173
330
A
100
AcDbEntity
  8
0
  6
DOT
100
AcDbLine
 10
1990.0
 20
916.4303009999999
 30
0.0
 11
2010.9578
 21
916.4303009999999
 31
0.0
  0
ARC
  5
174
330
A
100
AcDbEntity
  8
0
  6
DOT
100
AcDbCircle
 10
2010.9578
 20
876.430301
 30
0.0
 40
40.0
100
AcDbArc
 50
52.8
 51
90.0
  0
LINE
  5
175
330
A
100
AcDbEntity
  8
0
  6
DOT
100
AcDbLine
 10
2059.2092
 20
890.0233609999999
 30
0.0
 11
2035.1418
 21
908.2915009999998
 31
0.0
  0
ARC
  5
176
330
A
100
AcDbEntity
  8
0
  6
DOT
100
AcDbCircle
 10
2055.1968
 20
889.930301
 30
0.0
 40
0.5
100
AcDbArc
 50
270.0
 51
52.8
  0
LINE
  5
177
330
A
100
AcDbEntity
  8
0
  6
DOT
100
AcDbLine
 10
2055.1968
 20
889.4303009999999
 30
0.0
 11
2047.9984
 21
889.4303009999999
 31
0.0
  0
LINE
  5
178
330
A
100
AcDbEntity
  8
0
  6
DOT
100
AcDbLine
 10
2035.25
 20
905.698441
 30
0.0
 11
2055.4991
 21
890.3285609999999
 31
0.0
  0
LINE
  5
179
330
A
100
AcDbEntity
  8
0
  6
DOT
100
AcDbLine
 10
2047.9984
 20
889.4303009999999
 30
0.0
 11
2047.9984
 21
889.930301
 31
0.0
  0
ARC
  5
17A
330
A
100
AcDbEntity
  8
0
  6
DOT
100
AcDbCircle
 10
2045.9984
 20
889.930301
 30
0.0
 40
2.0
100
AcDbArc
 50
0.0
 51
90.0
  0
ARC
  5
17B
330
A
100
AcDbEntity
  8
0
  6
DOT
100
AcDbCircle
 10
2029.0
 20
906.1757810000001
 30
0.0
 40
3.0
100
AcDbArc
 50
61.455024
 51
180.0
  0
ARC
  5
17C
330
A
100
AcDbEntity
  8
0
  6
DOT
100
AcDbCircle
 10
2012.2753
 20
875.4303009999999
 30
0.0
 40
38.0
100
AcDbArc
 50
52.8
 51
61.455024
  0
LINE
  5
17D
330
A
100
AcDbEntity
  8
0
  6
DOT
100
AcDbLine
 10
2026.0
 20
906.1757810000001
 30
0.0
 11
2026.0
 21
889.4303009999999
 31
0.0
  0
ARC
  5
17E
330
A
100
AcDbEntity
  8
0
  6
DOT
100
AcDbCircle
 10
2029.9984
 20
890.930301
 30
0.0
 40
1.0
100
AcDbArc
 50
90.0
 51
180.0
  0
LINE
  5
17F
330
A
100
AcDbEntity
  8
0
  6
DOT
100
AcDbLine
 10
2028.9984
 20
890.930301
 30
0.0
 11
2028.9984
 21
889.4303009999999
 31
0.0
  0
ARC
  5
180
330
A
100
AcDbEntity
  8
0
  6
DOT
100
AcDbCircle
 10
2027.9984
 20
889.4303009999999
 30
0.0
 40
1.0
100
AcDbArc
 50
270.0
 51
0.0
  0
LINE
  5
181
330
A
100
AcDbEntity
  8
0
  6
DOT
100
AcDbLine
 10
2027.9984
 20
888.430301
 30
0.0
 11
2027.0
 21
888.430301
 31
0.0
  0
ARC
  5
182
330
A
100
AcDbEntity
  8
0
  6
DOT
100
AcDbCircle
 10
2027.0
 20
889.4303009999999
 30
0.0
 40
1.0
100
AcDbArc
 50
180.0
 51
270.0
  0
LINE
  5
183
330
A
100
AcDbEntity
  8
0
  6
DOT
100
AcDbLine
 10
2029.9984
 20
891.930301
 30
0.0
 11
2045.9984
 21
891.930301
 31
0.0
  0
ARC
  5
184
330
A
100
AcDbEntity
  8
0
  6
DOT
100
AcDbCircle
 10
2010.0
 20
900.4303009999999
 30
0.0
 40
1.0
100
AcDbArc
 50
90.0
 51
180.0
  0
ARC
  5
185
330
A
100
AcDbEntity
  8
0
  6
DOT
100
AcDbCircle
 10
2022.0
 20
900.4303009999999
 30
0.0
 40
1.0
100
AcDbArc
 50
0.0
 51
90.0
  0
LINE
  5
186
330
A
100
AcDbEntity
  8
0
  6
DOT
100
AcDbLine
 10
2010.0
 20
901.430301
 30
0.0
 11
2022.0
 21
901.430301
 31
0.0
  0
ARC
  5
187
330
A
100
AcDbEntity
  8
0
  6
DOT
100
AcDbCircle
 10
2008.0
 20
904.430301
 30
0.0
 40
2.0
100
AcDbArc
 50
90.0
 51
180.0
  0
LINE
  5
188
330
A
100
AcDbEntity
  8
0
  6
DOT
100
AcDbLine
 10
2008.0
 20
906.4303009999999
 30
0.0
 11
2020.0
 21
906.4303009999999
 31
0.0
  0
LINE
  5
189
330
A
100
AcDbEntity
  8
0
  6
DOT
100
AcDbLine
 10
2006.0
 20
895.430301
 30
0.0
 11
2006.0
 21
904.430301
 31
0.0
  0
ARC
  5
18A
330
A
100
AcDbEntity
  8
0
  6
DOT
100
AcDbCircle
 10
2020.0
 20
909.5672210000001
 30
0.0
 40
3.0
100
AcDbArc
 50
0.0
 51
77.24951899999999
  0
ARC
  5
18B
330
A
100
AcDbEntity
  8
0
  6
DOT
100
AcDbCircle
 10
2012.2753
 20
875.4303009999999
 30
0.0
 40
38.0
100
AcDbArc
 50
77.24951899999999
 51
90.0
  0
ARC
  5
18C
330
A
100
AcDbEntity
  8
0
  6
DOT
100
AcDbCircle
 10
2020.0
 20
909.430301
 30
0.0
 40
3.0
100
AcDbArc
 50
270.0
 51
0.0
  0
LINE
  5
18D
330
A
100
AcDbEntity
  8
0
  6
DOT
100
AcDbLine
 10
1999.0
 20
913.430301
 30
0.0
 11
2012.2753
 21
913.430301
 31
0.0
  0
LINE
  5
18E
330
A
100
AcDbEntity
  8
0
  6
DOT
100
AcDbLine
 10
1999.0
 20
895.430301
 30
0.0
 11
1999.0
 21
913.430301
 31
0.0
  0
LINE
  5
18F
330
A
100
AcDbEntity
  8
0
  6
DOT
100
AcDbLine
 10
1999.0
 20
895.430301
 30
0.0
 11
2006.0
 21
895.430301
 31
0.0
  0
LINE
  5
190
330
A
100
AcDbEntity
  8
0
  6
DOT
100
AcDbLine
 10
1992.0
 20
904.6803009999999
 30
0.0
 11
1992.0
 21
911.9303009999999
 31
0.0
  0
LINE
  5
191
330
A
100
AcDbEntity
  8
0
  6
DOT
100
AcDbLine
 10
1997.0
 20
890.930301
 30
0.0
 11
1997.0
 21
911.9303009999999
 31
0.0
  0
LINE
  5
192
330
A
100
AcDbEntity
  8
0
  6
DOT
100
AcDbLine
 10
1992.0
 20
911.9303009999999
 30
0.0
 11
1997.0
 21
911.9303009999999
 31
0.0
  0
LINE
  5
193
330
A
100
AcDbEntity
  8
0
  6
DOT
100
AcDbLine
 10
1992.0
 20
890.930301
 30
0.0
 11
1992.0
 21
898.180301
 31
0.0
  0
LINE
  5
194
330
A
100
AcDbEntity
  8
0
  6
DOT
100
AcDbLine
 10
1997.0
 20
890.930301
 30
0.0
 11
1992.0
 21
890.930301
 31
0.0
  0
LINE
  5
195
330
A
100
AcDbEntity
  8
0
  6
DOT
100
AcDbLine
 10
1990.0
 20
904.6803009999999
 30
0.0
 11
1992.0
 21
904.6803009999999
 31
0.0
  0
LINE
  5
196
330
A
100
AcDbEntity
  8
0
  6
DOT
100
AcDbLine
 10
1990.0
 20
898.180301
 30
0.0
 11
1992.0
 21
898.180301
 31
0.0
  0
LINE
  5
197
330
A
100
AcDbEntity
  8
0
  6
DOT
100
AcDbLine
 10
2047.9984
 20
1434.430241
 30
0.0
 11
2047.9984
 21
1433.930241
 31
0.0
  0
ARC
  5
198
330
A
100
AcDbEntity
  8
0
  6
DOT
100
AcDbCircle
 10
2055.1968
 20
1433.930241
 30
0.0
 40
0.5
100
AcDbArc
 50
307.2
 51
90.0
  0
ARC
  5
199
330
A
100
AcDbEntity
  8
0
  6
DOT
100
AcDbCircle
 10
2045.9984
 20
1433.930241
 30
0.0
 40
2.0
100
AcDbArc
 50
270.0
 51
0.0
  0
LINE
  5
19A
330
A
100
AcDbEntity
  8
0
  6
DOT
100
AcDbLine
 10
2029.9984
 20
1431.930241
 30
0.0
 11
2045.9984
 21
1431.930241
 31
0.0
  0
LINE
  5
19B
330
A
100
AcDbEntity
  8
0
  6
DOT
100
AcDbLine
 10
2035.25
 20
1418.162141
 30
0.0
 11
2055.4991
 21
1433.531941
 31
0.0
  0
LINE
  5
19C
330
A
100
AcDbEntity
  8
0
  6
DOT
100
AcDbLine
 10
2055.1968
 20
1434.430241
 30
0.0
 11
2047.9984
 21
1434.430241
 31
0.0
  0
ARC
  5
19D
330
A
100
AcDbEntity
  8
0
  6
DOT
100
AcDbCircle
 10
2029.0
 20
1417.684741
 30
0.0
 40
3.0
100
AcDbArc
 50
180.0
 51
298.5449700000001
  0
ARC
  5
19E
330
A
100
AcDbEntity
  8
0
  6
DOT
100
AcDbCircle
 10
2012.2753
 20
1448.430241
 30
0.0
 40
38.0
100
AcDbArc
 50
298.5449700000001
 51
307.2
  0
LINE
  5
19F
330
A
100
AcDbEntity
  8
0
  6
DOT
100
AcDbLine
 10
2026.0
 20
1417.684741
 30
0.0
 11
2026.0
 21
1434.430241
 31
0.0
  0
LINE
  5
1A0
330
A
100
AcDbEntity
  8
0
  6
DOT
100
AcDbLine
 10
2059.2092
 20
1433.837241
 30
0.0
 11
2035.1418
 21
1415.569041
 31
0.0
  0
ARC
  5
1A1
330
A
100
AcDbEntity
  8
0
  6
DOT
100
AcDbCircle
 10
2029.9984
 20
1432.930241
 30
0.0
 40
1.0
100
AcDbArc
 50
180.0
 51
270.0
  0
LINE
  5
1A2
330
A
100
AcDbEntity
  8
0
  6
DOT
100
AcDbLine
 10
2028.9984
 20
1432.930241
 30
0.0
 11
2028.9984
 21
1434.430241
 31
0.0
  0
ARC
  5
1A3
330
A
100
AcDbEntity
  8
0
  6
DOT
100
AcDbCircle
 10
2027.9984
 20
1434.430241
 30
0.0
 40
1.0
100
AcDbArc
 50
0.0
 51
90.0
  0
LINE
  5
1A4
330
A
100
AcDbEntity
  8
0
  6
DOT
100
AcDbLine
 10
2027.9984
 20
1435.430241
 30
0.0
 11
2027.0
 21
1435.430241
 31
0.0
  0
ARC
  5
1A5
330
A
100
AcDbEntity
  8
0
  6
DOT
100
AcDbCircle
 10
2027.0
 20
1434.430241
 30
0.0
 40
1.0
100
AcDbArc
 50
90.0
 51
180.0
  0
ARC
  5
1A6
330
A
100
AcDbEntity
  8
0
  6
DOT
100
AcDbCircle
 10
2010.9578
 20
1447.430241
 30
0.0
 40
40.0
100
AcDbArc
 50
270.0
 51
307.2
  0
ARC
  5
1A7
330
A
100
AcDbEntity
  8
0
  6
DOT
100
AcDbCircle
 10
2008.0
 20
1419.430241
 30
0.0
 40
2.0
100
AcDbArc
 50
180.0
 51
270.0
  0
LINE
  5
1A8
330
A
100
AcDbEntity
  8
0
  6
DOT
100
AcDbLine
 10
2008.0
 20
1417.430241
 30
0.0
 11
2020.0
 21
1417.430241
 31
0.0
  0
ARC
  5
1A9
330
A
100
AcDbEntity
  8
0
  6
DOT
100
AcDbCircle
 10
2020.0
 20
1414.293341
 30
0.0
 40
3.0
100
AcDbArc
 50
282.75048
 51
0.0
  0
ARC
  5
1AA
330
A
100
AcDbEntity
  8
0
  6
DOT
100
AcDbCircle
 10
2012.2753
 20
1448.430241
 30
0.0
 40
38.0
100
AcDbArc
 50
270.0
 51
282.75048
  0
ARC
  5
1AB
330
A
100
AcDbEntity
  8
0
  6
DOT
100
AcDbCircle
 10
2020.0
 20
1414.430241
 30
0.0
 40
3.0
100
AcDbArc
 50
0.0
 51
90.0
  0
LINE
  5
1AC
330
A
100
AcDbEntity
  8
0
  6
DOT
100
AcDbLine
 10
1990.0
 20
1407.430241
 30
0.0
 11
2010.9578
 21
1407.430241
 31
0.0
  0
LINE
  5
1AD
330
A
100
AcDbEntity
  8
0
  6
DOT
100
AcDbLine
 10
1999.0
 20
1410.430241
 30
0.0
 11
2012.2753
 21
1410.430241
 31
0.0
  0
LINE
  5
1AE
330
A
100
AcDbEntity
  8
0
  6
DOT
100
AcDbLine
 10
1990.0
 20
1425.680241
 30
0.0
 11
1992.0
 21
1425.680241
 31
0.0
  0
LINE
  5
1AF
330
A
100
AcDbEntity
  8
0
  6
DOT
100
AcDbLine
 10
1990.0
 20
1419.180241
 30
0.0
 11
1992.0
 21
1419.180241
 31
0.0
  0
LINE
  5
1B0
330
A
100
AcDbEntity
  8
0
  6
DOT
100
AcDbLine
 10
1992.0
 20
1419.180241
 30
0.0
 11
1992.0
 21
1411.930241
 31
0.0
  0
LINE
  5
1B1
330
A
100
AcDbEntity
  8
0
  6
DOT
100
AcDbLine
 10
1997.0
 20
1432.930241
 30
0.0
 11
1997.0
 21
1411.930241
 31
0.0
  0
LINE
  5
1B2
330
A
100
AcDbEntity
  8
0
  6
DOT
100
AcDbLine
 10
1992.0
 20
1411.930241
 30
0.0
 11
1997.0
 21
1411.930241
 31
0.0
  0
LINE
  5
1B3
330
A
100
AcDbEntity
  8
0
  6
DOT
100
AcDbLine
 10
1992.0
 20
1432.930241
 30
0.0
 11
1992.0
 21
1425.680241
 31
0.0
  0
LINE
  5
1B4
330
A
100
AcDbEntity
  8
0
  6
DOT
100
AcDbLine
 10
1997.0
 20
1432.930241
 30
0.0
 11
1992.0
 21
1432.930241
 31
0.0
  0
LINE
  5
1B5
330
A
100
AcDbEntity
  8
0
  6
DOT
100
AcDbLine
 10
1999.0
 20
1428.430241
 30
0.0
 11
1999.0
 21
1410.430241
 31
0.0
  0
LINE
  5
1B6
330
A
100
AcDbEntity
  8
0
  6
DOT
100
AcDbLine
 10
1999.0
 20
1428.430241
 30
0.0
 11
2006.0
 21
1428.430241
 31
0.0
  0
LINE
  5
1B7
330
A
100
AcDbEntity
  8
0
  6
DOT
100
AcDbLine
 10
2006.0
 20
1428.430241
 30
0.0
 11
2006.0
 21
1419.430241
 31
0.0
  0
LINE
  5
1B8
330
A
100
AcDbEntity
  8
0
  6
DOT
100
AcDbLine
 10
2010.0
 20
1422.430241
 30
0.0
 11
2022.0
 21
1422.430241
 31
0.0
  0
LINE
  5
1B9
330
A
100
AcDbEntity
  8
0
  6
DOT
100
AcDbLine
 10
1904.0
 20
1430.930241
 30
0.0
 11
1904.0
 21
1432.930241
 31
0.0
  0
LINE
  5
1BA
330
A
100
AcDbEntity
  8
0
  6
DOT
100
AcDbLine
 10
1904.0
 20
1413.930241
 30
0.0
 11
1904.0
 21
1411.930241
 31
0.0
  0
LINE
  5
1BB
330
A
100
AcDbEntity
  8
0
  6
DOT
100
AcDbLine
 10
1926.0
 20
1430.930241
 30
0.0
 11
1926.0
 21
1432.930241
 31
0.0
  0
LINE
  5
1BC
330
A
100
AcDbEntity
  8
0
  6
DOT
100
AcDbLine
 10
1926.0
 20
1413.930241
 30
0.0
 11
1926.0
 21
1411.930241
 31
0.0
  0
LINE
  5
1BD
330
A
100
AcDbEntity
  8
0
  6
DOT
100
AcDbLine
 10
1900.5
 20
1435.430241
 30
0.0
 11
1929.5
 21
1435.430241
 31
0.0
  0
LINE
  5
1BE
330
A
100
AcDbEntity
  8
0
  6
DOT
100
AcDbLine
 10
1929.5
 20
1432.930241
 30
0.0
 11
1929.5
 21
1435.430241
 31
0.0
  0
LINE
  5
1BF
330
A
100
AcDbEntity
  8
0
  6
DOT
100
AcDbLine
 10
1900.5
 20
1409.430241
 30
0.0
 11
1929.5
 21
1409.430241
 31
0.0
  0
LINE
  5
1C0
330
A
100
AcDbEntity
  8
0
  6
DOT
100
AcDbLine
 10
1929.5
 20
1411.930241
 30
0.0
 11
1929.5
 21
1409.430241
 31
0.0
  0
LINE
  5
1C1
330
A
100
AcDbEntity
  8
0
  6
DOT
100
AcDbLine
 10
1929.5
 20
1413.930241
 30
0.0
 11
1929.5
 21
1430.930241
 31
0.0
  0
LINE
  5
1C2
330
A
100
AcDbEntity
  8
0
  6
DOT
100
AcDbLine
 10
1931.5
 20
1432.930241
 30
0.0
 11
1931.5
 21
1411.930241
 31
0.0
  0
LINE
  5
1C3
330
A
100
AcDbEntity
  8
0
  6
DOT
100
AcDbLine
 10
1931.5
 20
1411.930241
 30
0.0
 11
1936.5
 21
1411.930241
 31
0.0
  0
LINE
  5
1C4
330
A
100
AcDbEntity
  8
0
  6
DOT
100
AcDbLine
 10
1936.5
 20
1418.930241
 30
0.0
 11
1940.0
 21
1418.930241
 31
0.0
  0
LINE
  5
1C5
330
A
100
AcDbEntity
  8
0
  6
DOT
100
AcDbLine
 10
1936.5
 20
1411.930241
 30
0.0
 11
1936.5
 21
1418.930241
 31
0.0
  0
LINE
  5
1C6
330
A
100
AcDbEntity
  8
0
  6
DOT
100
AcDbLine
 10
1926.0
 20
1411.930241
 30
0.0
 11
1929.5
 21
1411.930241
 31
0.0
  0
LINE
  5
1C7
330
A
100
AcDbEntity
  8
0
  6
DOT
100
AcDbLine
 10
1929.5
 20
1413.930241
 30
0.0
 11
1926.0
 21
1413.930241
 31
0.0
  0
LINE
  5
1C8
330
A
100
AcDbEntity
  8
0
  6
DOT
100
AcDbLine
 10
1931.5
 20
1432.930241
 30
0.0
 11
1936.5
 21
1432.930241
 31
0.0
  0
LINE
  5
1C9
330
A
100
AcDbEntity
  8
0
  6
DOT
100
AcDbLine
 10
1936.5
 20
1425.930241
 30
0.0
 11
1940.0
 21
1425.930241
 31
0.0
  0
LINE
  5
1CA
330
A
100
AcDbEntity
  8
0
  6
DOT
100
AcDbLine
 10
1936.5
 20
1432.930241
 30
0.0
 11
1936.5
 21
1425.930241
 31
0.0
  0
LINE
  5
1CB
330
A
100
AcDbEntity
  8
0
  6
DOT
100
AcDbLine
 10
1926.0
 20
1432.930241
 30
0.0
 11
1929.5
 21
1432.930241
 31
0.0
  0
LINE
  5
1CC
330
A
100
AcDbEntity
  8
0
  6
DOT
100
AcDbLine
 10
1929.5
 20
1430.930241
 30
0.0
 11
1926.0
 21
1430.930241
 31
0.0
  0
LINE
  5
1CD
330
A
100
AcDbEntity
  8
0
  6
DOT
100
AcDbLine
 10
1900.5
 20
1413.930241
 30
0.0
 11
1900.5
 21
1430.930241
 31
0.0
  0
LINE
  5
1CE
330
A
100
AcDbEntity
  8
0
  6
DOT
100
AcDbLine
 10
1898.5
 20
1432.930241
 30
0.0
 11
1898.5
 21
1411.930241
 31
0.0
  0
LINE
  5
1CF
330
A
100
AcDbEntity
  8
0
  6
DOT
100
AcDbLine
 10
1898.5
 20
1411.930241
 30
0.0
 11
1893.5
 21
1411.930241
 31
0.0
  0
LINE
  5
1D0
330
A
100
AcDbEntity
  8
0
  6
DOT
100
AcDbLine
 10
1893.5
 20
1418.930241
 30
0.0
 11
1890.0
 21
1418.930241
 31
0.0
  0
LINE
  5
1D1
330
A
100
AcDbEntity
  8
0
  6
DOT
100
AcDbLine
 10
1893.5
 20
1411.930241
 30
0.0
 11
1893.5
 21
1418.930241
 31
0.0
  0
LINE
  5
1D2
330
A
100
AcDbEntity
  8
0
  6
DOT
100
AcDbLine
 10
1900.5
 20
1411.930241
 30
0.0
 11
1900.5
 21
1409.430241
 31
0.0
  0
LINE
  5
1D3
330
A
100
AcDbEntity
  8
0
  6
DOT
100
AcDbLine
 10
1904.0
 20
1411.930241
 30
0.0
 11
1900.5
 21
1411.930241
 31
0.0
  0
LINE
  5
1D4
330
A
100
AcDbEntity
  8
0
  6
DOT
100
AcDbLine
 10
1900.5
 20
1413.930241
 30
0.0
 11
1904.0
 21
1413.930241
 31
0.0
  0
LINE
  5
1D5
330
A
100
AcDbEntity
  8
0
  6
DOT
100
AcDbLine
 10
1898.5
 20
1432.930241
 30
0.0
 11
1893.5
 21
1432.930241
 31
0.0
  0
LINE
  5
1D6
330
A
100
AcDbEntity
  8
0
  6
DOT
100
AcDbLine
 10
1893.5
 20
1425.930241
 30
0.0
 11
1890.0
 21
1425.930241
 31
0.0
  0
LINE
  5
1D7
330
A
100
AcDbEntity
  8
0
  6
DOT
100
AcDbLine
 10
1893.5
 20
1432.930241
 30
0.0
 11
1893.5
 21
1425.930241
 31
0.0
  0
LINE
  5
1D8
330
A
100
AcDbEntity
  8
0
  6
DOT
100
AcDbLine
 10
1900.5
 20
1432.930241
 30
0.0
 11
1900.5
 21
1435.430241
 31
0.0
  0
LINE
  5
1D9
330
A
100
AcDbEntity
  8
0
  6
DOT
100
AcDbLine
 10
1904.0
 20
1432.930241
 30
0.0
 11
1900.5
 21
1432.930241
 31
0.0
  0
LINE
  5
1DA
330
A
100
AcDbEntity
  8
0
  6
DOT
100
AcDbLine
 10
1900.5
 20
1430.930241
 30
0.0
 11
1904.0
 21
1430.930241
 31
0.0
  0
LINE
  5
1DB
330
A
100
AcDbEntity
  8
0
  6
DOT
100
AcDbLine
 10
1940.0
 20
1407.430241
 30
0.0
 11
1890.0
 21
1407.430241
 31
0.0
  0
LINE
  5
1DC
330
A
100
AcDbEntity
  8
0
  6
Continuous
100
AcDbLine
 10
1890.0
 20
1437.430241
 30
0.0
 11
1890.0
 21
886.430301
 31
0.0
  0
LINE
  5
1DD
330
A
100
AcDbEntity
  8
0
  6
Continuous
100
AcDbLine
 10
1940.0
 20
886.430301
 30
0.0
 11
1940.0
 21
1437.430241
 31
0.0
  0
LINE
  5
1DE
330
A
100
AcDbEntity
  8
0
  6
Continuous
100
AcDbLine
 10
1020.90476
 20
1411.930241
 30
0.0
 11
1020.90476
 21
1418.930241
 31
0.0
  0
LINE
  5
1DF
330
A
100
AcDbEntity
  8
0
  6
Continuous
100
AcDbLine
 10
1085.90476
 20
1411.930241
 30
0.0
 11
1020.90476
 21
1411.930241
 31
0.0
  0
LINE
  5
1E0
330
A
100
AcDbEntity
  8
0
  6
Continuous
100
AcDbLine
 10
1085.90476
 20
1418.930241
 30
0.0
 11
1085.90476
 21
1411.930241
 31
0.0
  0
LINE
  5
1E1
330
A
100
AcDbEntity
  8
0
  6
Continuous
100
AcDbLine
 10
1085.90476
 20
1432.930241
 30
0.0
 11
1085.90476
 21
1425.930241
 31
0.0
  0
LINE
  5
1E2
330
A
100
AcDbEntity
  8
0
  6
Continuous
100
AcDbLine
 10
1020.90476
 20
1432.930241
 30
0.0
 11
1085.90476
 21
1432.930241
 31
0.0
  0
LINE
  5
1E3
330
A
100
AcDbEntity
  8
0
  6
Continuous
100
AcDbLine
 10
1020.90476
 20
1425.930241
 30
0.0
 11
1020.90476
 21
1432.930241
 31
0.0
  0
LINE
  5
1E4
330
A
100
AcDbEntity
  8
0
  6
Continuous
100
AcDbLine
 10
1020.90476
 20
911.9303009999999
 30
0.0
 11
1020.90476
 21
904.930301
 31
0.0
  0
LINE
  5
1E5
330
A
100
AcDbEntity
  8
0
  6
Continuous
100
AcDbLine
 10
1085.90476
 20
911.9303009999999
 30
0.0
 11
1020.90476
 21
911.9303009999999
 31
0.0
  0
LINE
  5
1E6
330
A
100
AcDbEntity
  8
0
  6
Continuous
100
AcDbLine
 10
1085.90476
 20
904.930301
 30
0.0
 11
1085.90476
 21
911.9303009999999
 31
0.0
  0
LINE
  5
1E7
330
A
100
AcDbEntity
  8
0
  6
Continuous
100
AcDbLine
 10
1085.90476
 20
890.930301
 30
0.0
 11
1085.90476
 21
897.930301
 31
0.0
  0
LINE
  5
1E8
330
A
100
AcDbEntity
  8
0
  6
Continuous
100
AcDbLine
 10
1020.90476
 20
890.930301
 30
0.0
 11
1085.90476
 21
890.930301
 31
0.0
  0
LINE
  5
1E9
330
A
100
AcDbEntity
  8
0
  6
Continuous
100
AcDbLine
 10
1020.90476
 20
897.930301
 30
0.0
 11
1020.90476
 21
890.930301
 31
0.0
  0
LINE
  5
1EA
330
A
100
AcDbEntity
  8
0
  6
DASHDOT
100
AcDbLine
 10
1053.40476
 20
1437.004541
 30
0.0
 11
1053.40476
 21
1398.843641
 31
0.0
  0
LINE
  5
1EB
330
A
100
AcDbEntity
  8
0
  6
DASHDOT
100
AcDbLine
 10
1053.40476
 20
886.855991
 30
0.0
 11
1053.40476
 21
925.0169109999999
 31
0.0
  0
LINE
  5
1EC
330
A
100
AcDbEntity
  8
0
  6
DOT
100
AcDbLine
 10
643.4003299999999
 20
1407.430241
 30
0.0
 11
583.4003299999999
 21
1407.430241
 31
0.0
  0
LINE
  5
1ED
330
A
100
AcDbEntity
  8
0
  6
DOT
100
AcDbLine
 10
643.4003299999999
 20
1404.430241
 30
0.0
 11
583.4003299999999
 21
1404.430241
 31
0.0
  0
LINE
  5
1EE
330
A
100
AcDbEntity
  8
0
  6
DOT
100
AcDbLine
 10
643.4003299999999
 20
919.430301
 30
0.0
 11
583.4003299999999
 21
919.430301
 31
0.0
  0
LINE
  5
1EF
330
A
100
AcDbEntity
  8
0
  6
DOT
100
AcDbLine
 10
643.4003299999999
 20
916.4303009999999
 30
0.0
 11
583.4003299999999
 21
916.4303009999999
 31
0.0
  0
LINE
  5
1F0
330
A
100
AcDbEntity
  8
0
  6
DASHDOT
100
AcDbLine
 10
509.88642
 20
1372.430241
 30
0.0
 11
527.2819199999999
 21
1372.430241
 31
0.0
  0
LINE
  5
1F1
330
A
100
AcDbEntity
  8
0
  6
DASHDOT
100
AcDbLine
 10
532.9790799999999
 20
1161.430301
 30
0.0
 11
494.8181599999999
 21
1161.430301
 31
0.0
  0
LINE
  5
1F2
330
A
100
AcDbEntity
  8
0
  6
DASHDOT
100
AcDbLine
 10
509.88642
 20
951.430301
 30
0.0
 11
527.2819199999999
 21
951.430301
 31
0.0
  0
LINE
  5
1F3
330
A
100
AcDbEntity
  8
0
  6
DASHDOT
100
AcDbLine
 10
509.88642
 20
911.430301
 30
0.0
 11
527.2819199999999
 21
911.430301
 31
0.0
  0
LINE
  5
1F4
330
A
100
AcDbEntity
  8
0
  6
DASHDOT
100
AcDbLine
 10
528.40477
 20
909.948651
 30
0.0
 11
528.40477
 21
892.5531509999999
 31
0.0
  0
LINE
  5
1F5
330
A
100
AcDbEntity
  8
0
  6
DASHDOT
100
AcDbLine
 10
568.4003299999999
 20
917.542511
 30
0.0
 11
568.4003299999999
 21
929.628431
 31
0.0
  0
LINE
  5
1F6
330
A
100
AcDbEntity
  8
0
  6
DASHDOT
100
AcDbLine
 10
568.40476
 20
909.948651
 30
0.0
 11
568.40476
 21
892.5531509999999
 31
0.0
  0
LINE
  5
1F7
330
A
100
AcDbEntity
  8
0
  6
DASHDOT
100
AcDbLine
 10
593.4003299999999
 20
909.948651
 30
0.0
 11
593.4003299999999
 21
892.5531509999999
 31
0.0
  0
LINE
  5
1F8
330
A
100
AcDbEntity
  8
0
  6
DASHDOT
100
AcDbLine
 10
613.4003299999999
 20
909.948651
 30
0.0
 11
613.4003299999999
 21
892.5531509999999
 31
0.0
  0
LINE
  5
1F9
330
A
100
AcDbEntity
  8
0
  6
DASHDOT
100
AcDbLine
 10
633.4003299999999
 20
909.948651
 30
0.0
 11
633.4003299999999
 21
892.5531509999999
 31
0.0
  0
LINE
  5
1FA
330
A
100
AcDbEntity
  8
0
  6
DASHDOT
100
AcDbLine
 10
613.4003299999999
 20
1413.911941
 30
0.0
 11
613.4003299999999
 21
1431.307441
 31
0.0
  0
LINE
  5
1FB
330
A
100
AcDbEntity
  8
0
  6
DASHDOT
100
AcDbLine
 10
633.4003299999999
 20
1413.911941
 30
0.0
 11
633.4003299999999
 21
1431.307441
 31
0.0
  0
LINE
  5
1FC
330
A
100
AcDbEntity
  8
0
  6
DASHDOT
100
AcDbLine
 10
593.4003299999999
 20
1413.911941
 30
0.0
 11
593.4003299999999
 21
1431.307441
 31
0.0
  0
LINE
  5
1FD
330
A
100
AcDbEntity
  8
0
  6
DASHDOT
100
AcDbLine
 10
568.40476
 20
1413.911941
 30
0.0
 11
568.40476
 21
1431.307441
 31
0.0
  0
LINE
  5
1FE
330
A
100
AcDbEntity
  8
0
  6
DASHDOT
100
AcDbLine
 10
568.4003299999999
 20
1406.318041
 30
0.0
 11
568.4003299999999
 21
1394.232141
 31
0.0
  0
LINE
  5
1FF
330
A
100
AcDbEntity
  8
0
  6
DASHDOT
100
AcDbLine
 10
509.88642
 20
1412.430241
 30
0.0
 11
527.2819199999999
 21
1412.430241
 31
0.0
  0
LINE
  5
200
330
A
100
AcDbEntity
  8
0
  6
DASHDOT
100
AcDbLine
 10
528.40477
 20
1413.911941
 30
0.0
 11
528.40477
 21
1431.307441
 31
0.0
  0
LINE
  5
201
330
A
100
AcDbEntity
  8
0
  6
Continuous
100
AcDbLine
 10
643.4003299999999
 20
888.930301
 30
0.0
 11
668.4003299999999
 21
888.930301
 31
0.0
  0
LINE
  5
202
330
A
100
AcDbEntity
  8
0
  6
Continuous
100
AcDbLine
 10
583.4003299999999
 20
888.930301
 30
0.0
 11
643.4003299999999
 21
888.930301
 31
0.0
  0
LINE
  5
203
330
A
100
AcDbEntity
  8
0
  6
Continuous
100
AcDbLine
 10
668.4003299999999
 20
923.630301
 30
0.0
 11
668.4003299999999
 21
888.930301
 31
0.0
  0
LINE
  5
204
330
A
100
AcDbEntity
  8
0
  6
Continuous
100
AcDbLine
 10
643.4003299999999
 20
888.930301
 30
0.0
 11
643.4003299999999
 21
922.630301
 31
0.0
  0
LINE
  5
205
330
A
100
AcDbEntity
  8
0
  6
Continuous
100
AcDbLine
 10
608.4003299999999
 20
923.630301
 30
0.0
 11
608.4003299999999
 21
888.930301
 31
0.0
  0
LINE
  5
206
330
A
100
AcDbEntity
  8
0
  6
Continuous
100
AcDbLine
 10
583.4003299999999
 20
922.630301
 30
0.0
 11
583.4003299999999
 21
888.930301
 31
0.0
  0
LINE
  5
207
330
A
100
AcDbEntity
  8
0
  6
Continuous
100
AcDbLine
 10
668.4003299999999
 20
923.630301
 30
0.0
 11
668.4003299999999
 21
926.830301
 31
0.0
  0
LINE
  5
208
330
A
100
AcDbEntity
  8
0
  6
Continuous
100
AcDbLine
 10
560.4003299999999
 20
923.630301
 30
0.0
 11
668.4003299999999
 21
923.630301
 31
0.0
  0
LINE
  5
209
330
A
100
AcDbEntity
  8
0
  6
Continuous
100
AcDbLine
 10
668.4003299999999
 20
926.830301
 30
0.0
 11
560.4003299999999
 21
926.830301
 31
0.0
  0
LINE
  5
20A
330
A
100
AcDbEntity
  8
0
  6
Continuous
100
AcDbLine
 10
560.4003299999999
 20
922.630301
 30
0.0
 11
643.4003299999999
 21
922.630301
 31
0.0
  0
LINE
  5
20B
330
A
100
AcDbEntity
  8
0
  6
Continuous
100
AcDbLine
 10
560.4003299999999
 20
922.630301
 30
0.0
 11
560.4003299999999
 21
919.430301
 31
0.0
  0
LINE
  5
20C
330
A
100
AcDbEntity
  8
0
  6
Continuous
100
AcDbLine
 10
583.4003299999999
 20
919.430301
 30
0.0
 11
560.4003299999999
 21
919.430301
 31
0.0
  0
LINE
  5
20D
330
A
100
AcDbEntity
  8
0
  6
Continuous
100
AcDbLine
 10
560.4003299999999
 20
926.830301
 30
0.0
 11
560.4003299999999
 21
923.630301
 31
0.0
  0
LINE
  5
20E
330
A
100
AcDbEntity
  8
0
  6
Continuous
100
AcDbLine
 10
528.40477
 20
911.430301
 30
0.0
 11
528.40477
 21
961.430301
 31
0.0
  0
LINE
  5
20F
330
A
100
AcDbEntity
  8
0
  6
Continuous
100
AcDbLine
 10
578.40476
 20
911.430301
 30
0.0
 11
528.40477
 21
911.430301
 31
0.0
  0
LINE
  5
210
330
A
100
AcDbEntity
  8
0
  6
Continuous
100
AcDbLine
 10
578.40476
 20
891.4303009999999
 30
0.0
 11
578.40476
 21
911.430301
 31
0.0
  0
LINE
  5
211
330
A
100
AcDbEntity
  8
0
  6
Continuous
100
AcDbLine
 10
508.40477
 20
891.4303009999999
 30
0.0
 11
578.40476
 21
891.4303009999999
 31
0.0
  0
LINE
  5
212
330
A
100
AcDbEntity
  8
0
  6
Continuous
100
AcDbLine
 10
508.40477
 20
961.430301
 30
0.0
 11
508.40477
 21
891.4303009999999
 31
0.0
  0
LINE
  5
213
330
A
100
AcDbEntity
  8
0
  6
Continuous
100
AcDbLine
 10
528.40477
 20
961.430301
 30
0.0
 11
508.40477
 21
961.430301
 31
0.0
  0
LINE
  5
214
330
A
100
AcDbEntity
  8
0
  6
Continuous
100
AcDbLine
 10
515.15477
 20
1362.430241
 30
0.0
 11
515.15477
 21
1193.930301
 31
0.0
  0
LINE
  5
215
330
A
100
AcDbEntity
  8
0
  6
Continuous
100
AcDbLine
 10
521.6547699999999
 20
1362.430241
 30
0.0
 11
521.6547699999999
 21
1193.930301
 31
0.0
  0
LINE
  5
216
330
A
100
AcDbEntity
  8
0
  6
Continuous
100
AcDbLine
 10
578.40476
 20
904.6803009999999
 30
0.0
 11
583.4003299999999
 21
904.6803009999999
 31
0.0
  0
LINE
  5
217
330
A
100
AcDbEntity
  8
0
  6
Continuous
100
AcDbLine
 10
578.40476
 20
898.180301
 30
0.0
 11
583.4003299999999
 21
898.180301
 31
0.0
  0
LINE
  5
218
330
A
100
AcDbEntity
  8
0
  6
Continuous
100
AcDbLine
 10
515.15477
 20
1128.930301
 30
0.0
 11
515.15477
 21
961.430301
 31
0.0
  0
LINE
  5
219
330
A
100
AcDbEntity
  8
0
  6
Continuous
100
AcDbLine
 10
521.6547699999999
 20
1128.930301
 30
0.0
 11
521.6547699999999
 21
961.430301
 31
0.0
  0
CIRCLE
  5
21A
330
A
100
AcDbEntity
  8
0
  6
Continuous
100
AcDbCircle
 10
518.4047699999999
 20
951.430301
 30
0.0
 40
4.5
  0
CIRCLE
  5
21B
330
A
100
AcDbEntity
  8
0
  6
Continuous
100
AcDbCircle
 10
518.4047699999999
 20
911.430301
 30
0.0
 40
4.5
  0
CIRCLE
  5
21C
330
A
100
AcDbEntity
  8
0
  6
Continuous
100
AcDbCircle
 10
528.40477
 20
901.430301
 30
0.0
 40
4.5
  0
CIRCLE
  5
21D
330
A
100
AcDbEntity
  8
0
  6
Continuous
100
AcDbCircle
 10
568.40476
 20
901.430301
 30
0.0
 40
4.5
  0
LINE
  5
21E
330
A
100
AcDbEntity
  8
0
  6
Continuous
100
AcDbLine
 10
643.4003299999999
 20
898.180301
 30
0.0
 11
1020.90476
 21
898.180301
 31
0.0
  0
LINE
  5
21F
330
A
100
AcDbEntity
  8
0
  6
Continuous
100
AcDbLine
 10
643.4003299999999
 20
904.6803009999999
 30
0.0
 11
1020.90476
 21
904.6803009999999
 31
0.0
  0
LINE
  5
220
330
A
100
AcDbEntity
  8
0
  6
Continuous
100
AcDbLine
 10
533.40477
 20
916.4303009999999
 30
0.0
 11
583.4003299999999
 21
916.4303009999999
 31
0.0
  0
LINE
  5
221
330
A
100
AcDbEntity
  8
0
  6
Continuous
100
AcDbLine
 10
533.40477
 20
916.4303009999999
 30
0.0
 11
533.40477
 21
1407.430241
 31
0.0
  0
CIRCLE
  5
222
330
A
100
AcDbEntity
  8
0
  6
Continuous
100
AcDbCircle
 10
633.4003299999999
 20
901.430301
 30
0.0
 40
4.5
  0
CIRCLE
  5
223
330
A
100
AcDbEntity
  8
0
  6
Continuous
100
AcDbCircle
 10
613.4003299999999
 20
901.430301
 30
0.0
 40
4.5
  0
CIRCLE
  5
224
330
A
100
AcDbEntity
  8
0
  6
Continuous
100
AcDbCircle
 10
593.4003299999999
 20
901.430301
 30
0.0
 40
4.5
  0
LINE
  5
225
330
A
100
AcDbEntity
  8
0
  6
Continuous
100
AcDbLine
 10
521.9047699999999
 20
1128.930301
 30
0.0
 11
528.90477
 21
1128.930301
 31
0.0
  0
LINE
  5
226
330
A
100
AcDbEntity
  8
0
  6
Continuous
100
AcDbLine
 10
528.90477
 20
1128.930301
 30
0.0
 11
528.90477
 21
1193.930301
 31
0.0
  0
LINE
  5
227
330
A
100
AcDbEntity
  8
0
  6
Continuous
100
AcDbLine
 10
528.90477
 20
1193.930301
 30
0.0
 11
521.9047699999999
 21
1193.930301
 31
0.0
  0
LINE
  5
228
330
A
100
AcDbEntity
  8
0
  6
Continuous
100
AcDbLine
 10
514.9047699999999
 20
1193.930301
 30
0.0
 11
507.90477
 21
1193.930301
 31
0.0
  0
LINE
  5
229
330
A
100
AcDbEntity
  8
0
  6
Continuous
100
AcDbLine
 10
507.90477
 20
1193.930301
 30
0.0
 11
507.90477
 21
1128.930301
 31
0.0
  0
LINE
  5
22A
330
A
100
AcDbEntity
  8
0
  6
Continuous
100
AcDbLine
 10
507.90477
 20
1128.930301
 30
0.0
 11
514.9047699999999
 21
1128.930301
 31
0.0
  0
LINE
  5
22B
330
A
100
AcDbEntity
  8
0
  6
Continuous
100
AcDbLine
 10
503.40477
 20
886.430301
 30
0.0
 11
503.40477
 21
1437.430241
 31
0.0
  0
LINE
  5
22C
330
A
100
AcDbEntity
  8
0
  6
Continuous
100
AcDbLine
 10
643.4003299999999
 20
1434.930241
 30
0.0
 11
668.4003299999999
 21
1434.930241
 31
0.0
  0
LINE
  5
22D
330
A
100
AcDbEntity
  8
0
  6
Continuous
100
AcDbLine
 10
583.4003299999999
 20
1434.930241
 30
0.0
 11
643.4003299999999
 21
1434.930241
 31
0.0
  0
LINE
  5
22E
330
A
100
AcDbEntity
  8
0
  6
Continuous
100
AcDbLine
 10
668.4003299999999
 20
1400.230241
 30
0.0
 11
668.4003299999999
 21
1434.930241
 31
0.0
  0
LINE
  5
22F
330
A
100
AcDbEntity
  8
0
  6
Continuous
100
AcDbLine
 10
643.4003299999999
 20
1434.930241
 30
0.0
 11
643.4003299999999
 21
1401.230241
 31
0.0
  0
LINE
  5
230
330
A
100
AcDbEntity
  8
0
  6
Continuous
100
AcDbLine
 10
608.4003299999999
 20
1400.230241
 30
0.0
 11
608.4003299999999
 21
1434.930241
 31
0.0
  0
LINE
  5
231
330
A
100
AcDbEntity
  8
0
  6
Continuous
100
AcDbLine
 10
583.4003299999999
 20
1401.230241
 30
0.0
 11
583.4003299999999
 21
1434.930241
 31
0.0
  0
LINE
  5
232
330
A
100
AcDbEntity
  8
0
  6
Continuous
100
AcDbLine
 10
668.4003299999999
 20
1400.230241
 30
0.0
 11
668.4003299999999
 21
1397.030241
 31
0.0
  0
LINE
  5
233
330
A
100
AcDbEntity
  8
0
  6
Continuous
100
AcDbLine
 10
560.4003299999999
 20
1400.230241
 30
0.0
 11
668.4003299999999
 21
1400.230241
 31
0.0
  0
LINE
  5
234
330
A
100
AcDbEntity
  8
0
  6
Continuous
100
AcDbLine
 10
668.4003299999999
 20
1397.030241
 30
0.0
 11
560.4003299999999
 21
1397.030241
 31
0.0
  0
LINE
  5
235
330
A
100
AcDbEntity
  8
0
  6
Continuous
100
AcDbLine
 10
560.4003299999999
 20
1401.230241
 30
0.0
 11
643.4003299999999
 21
1401.230241
 31
0.0
  0
LINE
  5
236
330
A
100
AcDbEntity
  8
0
  6
Continuous
100
AcDbLine
 10
560.4003299999999
 20
1401.230241
 30
0.0
 11
560.4003299999999
 21
1404.430241
 31
0.0
  0
LINE
  5
237
330
A
100
AcDbEntity
  8
0
  6
Continuous
100
AcDbLine
 10
583.4003299999999
 20
1404.430241
 30
0.0
 11
560.4003299999999
 21
1404.430241
 31
0.0
  0
LINE
  5
238
330
A
100
AcDbEntity
  8
0
  6
Continuous
100
AcDbLine
 10
560.4003299999999
 20
1397.030241
 30
0.0
 11
560.4003299999999
 21
1400.230241
 31
0.0
  0
LINE
  5
239
330
A
100
AcDbEntity
  8
0
  6
Continuous
100
AcDbLine
 10
528.40477
 20
1412.430241
 30
0.0
 11
528.40477
 21
1362.430241
 31
0.0
  0
LINE
  5
23A
330
A
100
AcDbEntity
  8
0
  6
Continuous
100
AcDbLine
 10
578.40476
 20
1412.430241
 30
0.0
 11
528.40477
 21
1412.430241
 31
0.0
  0
LINE
  5
23B
330
A
100
AcDbEntity
  8
0
  6
Continuous
100
AcDbLine
 10
578.40476
 20
1432.430241
 30
0.0
 11
578.40476
 21
1412.430241
 31
0.0
  0
LINE
  5
23C
330
A
100
AcDbEntity
  8
0
  6
Continuous
100
AcDbLine
 10
508.40477
 20
1432.430241
 30
0.0
 11
578.40476
 21
1432.430241
 31
0.0
  0
LINE
  5
23D
330
A
100
AcDbEntity
  8
0
  6
Continuous
100
AcDbLine
 10
508.40477
 20
1362.430241
 30
0.0
 11
508.40477
 21
1432.430241
 31
0.0
  0
LINE
  5
23E
330
A
100
AcDbEntity
  8
0
  6
Continuous
100
AcDbLine
 10
528.40477
 20
1362.430241
 30
0.0
 11
508.40477
 21
1362.430241
 31
0.0
  0
LINE
  5
23F
330
A
100
AcDbEntity
  8
0
  6
Continuous
100
AcDbLine
 10
583.4003299999999
 20
1425.680241
 30
0.0
 11
578.40476
 21
1425.680241
 31
0.0
  0
LINE
  5
240
330
A
100
AcDbEntity
  8
0
  6
Continuous
100
AcDbLine
 10
583.4003299999999
 20
1419.180241
 30
0.0
 11
578.40476
 21
1419.180241
 31
0.0
  0
CIRCLE
  5
241
330
A
100
AcDbEntity
  8
0
  6
Continuous
100
AcDbCircle
 10
518.4047699999999
 20
1372.430241
 30
0.0
 40
4.5
  0
CIRCLE
  5
242
330
A
100
AcDbEntity
  8
0
  6
Continuous
100
AcDbCircle
 10
518.4047699999999
 20
1412.430241
 30
0.0
 40
4.5
  0
CIRCLE
  5
243
330
A
100
AcDbEntity
  8
0
  6
Continuous
100
AcDbCircle
 10
528.40477
 20
1422.430241
 30
0.0
 40
4.5
  0
CIRCLE
  5
244
330
A
100
AcDbEntity
  8
0
  6
Continuous
100
AcDbCircle
 10
568.40476
 20
1422.430241
 30
0.0
 40
4.5
  0
LINE
  5
245
330
A
100
AcDbEntity
  8
0
  6
Continuous
100
AcDbLine
 10
1020.90476
 20
1425.680241
 30
0.0
 11
643.4003299999999
 21
1425.680241
 31
0.0
  0
LINE
  5
246
330
A
100
AcDbEntity
  8
0
  6
Continuous
100
AcDbLine
 10
1020.90476
 20
1419.180241
 30
0.0
 11
643.4003299999999
 21
1419.180241
 31
0.0
  0
LINE
  5
247
330
A
100
AcDbEntity
  8
0
  6
Continuous
100
AcDbLine
 10
583.4003299999999
 20
1407.430241
 30
0.0
 11
533.40477
 21
1407.430241
 31
0.0
  0
CIRCLE
  5
248
330
A
100
AcDbEntity
  8
0
  6
Continuous
100
AcDbCircle
 10
633.4003299999999
 20
1422.430241
 30
0.0
 40
4.5
  0
CIRCLE
  5
249
330
A
100
AcDbEntity
  8
0
  6
Continuous
100
AcDbCircle
 10
613.4003299999999
 20
1422.430241
 30
0.0
 40
4.5
  0
CIRCLE
  5
24A
330
A
100
AcDbEntity
  8
0
  6
Continuous
100
AcDbCircle
 10
593.4003299999999
 20
1422.430241
 30
0.0
 40
4.5
  0
CIRCLE
  5
24B
330
A
100
AcDbEntity
  8
0
  6
Continuous
100
AcDbCircle
 10
1588.40476
 20
1284.430301
 30
0.0
 40
4.5
  0
CIRCLE
  5
24C
330
A
100
AcDbEntity
  8
0
  6
Continuous
100
AcDbCircle
 10
1588.40476
 20
1350.430241
 30
0.0
 40
4.5
  0
CIRCLE
  5
24D
330
A
100
AcDbEntity
  8
0
  6
Continuous
100
AcDbCircle
 10
1538.40476
 20
1422.430241
 30
0.0
 40
4.5
  0
CIRCLE
  5
24E
330
A
100
AcDbEntity
  8
0
  6
Continuous
100
AcDbCircle
 10
1578.40476
 20
1422.430241
 30
0.0
 40
4.5
  0
CIRCLE
  5
24F
330
A
100
AcDbEntity
  8
0
  6
Continuous
100
AcDbCircle
 10
1588.40476
 20
1412.430241
 30
0.0
 40
4.5
  0
CIRCLE
  5
250
330
A
100
AcDbEntity
  8
0
  6
Continuous
100
AcDbCircle
 10
1588.40476
 20
1372.430241
 30
0.0
 40
4.5
  0
LINE
  5
251
330
A
100
AcDbEntity
  8
0
  6
Continuous
100
AcDbLine
 10
1528.40476
 20
1425.680241
 30
0.0
 11
1085.90476
 21
1425.680241
 31
0.0
  0
LINE
  5
252
330
A
100
AcDbEntity
  8
0
  6
Continuous
100
AcDbLine
 10
1528.40476
 20
1419.180241
 30
0.0
 11
1085.90476
 21
1419.180241
 31
0.0
  0
LINE
  5
253
330
A
100
AcDbEntity
  8
0
  6
Continuous
100
AcDbLine
 10
1591.65476
 20
1357.430241
 30
0.0
 11
1591.65476
 21
1362.430241
 31
0.0
  0
LINE
  5
254
330
A
100
AcDbEntity
  8
0
  6
Continuous
100
AcDbLine
 10
1585.15476
 20
1357.430241
 30
0.0
 11
1585.15476
 21
1362.430241
 31
0.0
  0
LINE
  5
255
330
A
100
AcDbEntity
  8
0
  6
Continuous
100
AcDbLine
 10
1584.50476
 20
1294.430301
 30
0.0
 11
1584.50476
 21
1330.430301
 31
0.0
  0
LINE
  5
256
330
A
100
AcDbEntity
  8
0
  6
Continuous
100
AcDbLine
 10
1592.30476
 20
1294.430301
 30
0.0
 11
1592.30476
 21
1330.430301
 31
0.0
  0
LINE
  5
257
330
A
100
AcDbEntity
  8
0
  6
Continuous
100
AcDbLine
 10
1586.40476
 20
1295.430301
 30
0.0
 11
1586.40476
 21
1341.930301
 31
0.0
  0
LINE
  5
258
330
A
100
AcDbEntity
  8
0
  6
Continuous
100
AcDbLine
 10
1586.40476
 20
1341.930301
 30
0.0
 11
1590.40476
 21
1341.930301
 31
0.0
  0
LINE
  5
259
330
A
100
AcDbEntity
  8
0
  6
Continuous
100
AcDbLine
 10
1590.40476
 20
1341.930301
 30
0.0
 11
1590.40476
 21
1295.430301
 31
0.0
  0
LINE
  5
25A
330
A
100
AcDbEntity
  8
0
  6
Continuous
100
AcDbLine
 10
1590.40476
 20
1295.430301
 30
0.0
 11
1586.40476
 21
1295.430301
 31
0.0
  0
LINE
  5
25B
330
A
100
AcDbEntity
  8
0
  6
Continuous
100
AcDbLine
 10
1576.80476
 20
1339.930301
 30
0.0
 11
1576.80476
 21
1354.930241
 31
0.0
  0
LINE
  5
25C
330
A
100
AcDbEntity
  8
0
  6
Continuous
100
AcDbLine
 10
1576.80476
 20
1354.930241
 30
0.0
 11
1606.80476
 21
1354.930241
 31
0.0
  0
LINE
  5
25D
330
A
100
AcDbEntity
  8
0
  6
Continuous
100
AcDbLine
 10
1606.80476
 20
1327.129351
 30
0.0
 11
1606.80476
 21
1372.253541
 31
0.0
  0
LINE
  5
25E
330
A
100
AcDbEntity
  8
0
  6
Continuous
100
AcDbLine
 10
1606.80476
 20
1372.253541
 30
0.0
 11
1610.00476
 21
1372.253541
 31
0.0
  0
LINE
  5
25F
330
A
100
AcDbEntity
  8
0
  6
Continuous
100
AcDbLine
 10
1610.00476
 20
1372.253541
 30
0.0
 11
1610.00476
 21
1327.129351
 31
0.0
  0
LINE
  5
260
330
A
100
AcDbEntity
  8
0
  6
Continuous
100
AcDbLine
 10
1610.00476
 20
1327.129351
 30
0.0
 11
1606.80476
 21
1327.129351
 31
0.0
  0
LINE
  5
261
330
A
100
AcDbEntity
  8
0
  6
Continuous
100
AcDbLine
 10
1584.50476
 20
1330.430301
 30
0.0
 11
1574.90476
 21
1330.430301
 31
0.0
  0
LINE
  5
262
330
A
100
AcDbEntity
  8
0
  6
Continuous
100
AcDbLine
 10
1574.90476
 20
1294.430301
 30
0.0
 11
1584.50476
 21
1294.430301
 31
0.0
  0
LINE
  5
263
330
A
100
AcDbEntity
  8
0
  6
Continuous
100
AcDbLine
 10
1574.90476
 20
1294.430301
 30
0.0
 11
1574.90476
 21
1330.430301
 31
0.0
  0
LINE
  5
264
330
A
100
AcDbEntity
  8
0
  6
Continuous
100
AcDbLine
 10
1601.90476
 20
1294.430301
 30
0.0
 11
1592.30476
 21
1294.430301
 31
0.0
  0
LINE
  5
265
330
A
100
AcDbEntity
  8
0
  6
Continuous
100
AcDbLine
 10
1601.90476
 20
1294.430301
 30
0.0
 11
1601.90476
 21
1330.430301
 31
0.0
  0
LINE
  5
266
330
A
100
AcDbEntity
  8
0
  6
Continuous
100
AcDbLine
 10
1592.30476
 20
1330.430301
 30
0.0
 11
1601.90476
 21
1330.430301
 31
0.0
  0
LINE
  5
267
330
A
100
AcDbEntity
  8
0
  6
Continuous
100
AcDbLine
 10
1576.80476
 20
1339.930301
 30
0.0
 11
1586.40476
 21
1339.930301
 31
0.0
  0
LINE
  5
268
330
A
100
AcDbEntity
  8
0
  6
Continuous
100
AcDbLine
 10
1590.40476
 20
1339.930301
 30
0.0
 11
1603.30476
 21
1339.930301
 31
0.0
  0
LINE
  5
269
330
A
100
AcDbEntity
  8
0
  6
Continuous
100
AcDbLine
 10
1578.40476
 20
1362.430241
 30
0.0
 11
1598.40476
 21
1362.430241
 31
0.0
  0
LINE
  5
26A
330
A
100
AcDbEntity
  8
0
  6
Continuous
100
AcDbLine
 10
1598.40476
 20
1362.430241
 30
0.0
 11
1598.40476
 21
1432.430241
 31
0.0
  0
LINE
  5
26B
330
A
100
AcDbEntity
  8
0
  6
Continuous
100
AcDbLine
 10
1598.40476
 20
1432.430241
 30
0.0
 11
1528.40476
 21
1432.430241
 31
0.0
  0
LINE
  5
26C
330
A
100
AcDbEntity
  8
0
  6
Continuous
100
AcDbLine
 10
1528.40476
 20
1432.430241
 30
0.0
 11
1528.40476
 21
1412.430241
 31
0.0
  0
LINE
  5
26D
330
A
100
AcDbEntity
  8
0
  6
Continuous
100
AcDbLine
 10
1528.40476
 20
1412.430241
 30
0.0
 11
1578.40476
 21
1412.430241
 31
0.0
  0
LINE
  5
26E
330
A
100
AcDbEntity
  8
0
  6
Continuous
100
AcDbLine
 10
1578.40476
 20
1412.430241
 30
0.0
 11
1578.40476
 21
1362.430241
 31
0.0
  0
LINE
  5
26F
330
A
100
AcDbEntity
  8
0
  6
Continuous
100
AcDbLine
 10
1573.40476
 20
1357.430241
 30
0.0
 11
1603.40476
 21
1357.430241
 31
0.0
  0
LINE
  5
270
330
A
100
AcDbEntity
  8
0
  6
Continuous
100
AcDbLine
 10
1603.40476
 20
1277.430301
 30
0.0
 11
1573.40476
 21
1277.430301
 31
0.0
  0
LINE
  5
271
330
A
100
AcDbEntity
  8
0
  6
Continuous
100
AcDbLine
 10
1610.00476
 20
1331.430301
 30
0.0
 11
1612.09391
 21
1331.430301
 31
0.0
  0
LINE
  5
272
330
A
100
AcDbEntity
  8
0
  6
Continuous
100
AcDbLine
 10
1612.09391
 20
1341.430301
 30
0.0
 11
1610.00476
 21
1341.430301
 31
0.0
  0
LINE
  5
273
330
A
100
AcDbEntity
  8
0
  6
Continuous
100
AcDbLine
 10
1612.09391
 20
1331.430301
 30
0.0
 11
1612.09391
 21
1341.430301
 31
0.0
  0
LINE
  5
274
330
A
100
AcDbEntity
  8
0
  6
Continuous
100
AcDbLine
 10
1606.80476
 20
1340.430301
 30
0.0
 11
1603.30476
 21
1340.430301
 31
0.0
  0
LINE
  5
275
330
A
100
AcDbEntity
  8
0
  6
Continuous
100
AcDbLine
 10
1603.30476
 20
1340.430301
 30
0.0
 11
1603.30476
 21
1332.430301
 31
0.0
  0
LINE
  5
276
330
A
100
AcDbEntity
  8
0
  6
Continuous
100
AcDbLine
 10
1603.30476
 20
1332.430301
 30
0.0
 11
1606.80476
 21
1332.430301
 31
0.0
  0
LINE
  5
277
330
A
100
AcDbEntity
  8
0
  6
Continuous
100
AcDbLine
 10
1606.80476
 20
1338.930301
 30
0.0
 11
1600.09391
 21
1338.930301
 31
0.0
  0
LINE
  5
278
330
A
100
AcDbEntity
  8
0
  6
Continuous
100
AcDbLine
 10
1606.80476
 20
1333.930301
 30
0.0
 11
1600.09391
 21
1333.930301
 31
0.0
  0
LINE
  5
279
330
A
100
AcDbEntity
  8
0
  6
Continuous
100
AcDbLine
 10
1600.09391
 20
1338.930301
 30
0.0
 11
1600.09391
 21
1333.930301
 31
0.0
  0
LINE
  5
27A
330
A
100
AcDbEntity
  8
0
  6
Continuous
100
AcDbLine
 10
1600.09391
 20
1338.430301
 30
0.0
 11
1603.30476
 21
1338.430301
 31
0.0
  0
LINE
  5
27B
330
A
100
AcDbEntity
  8
0
  6
Continuous
100
AcDbLine
 10
1600.09391
 20
1334.430301
 30
0.0
 11
1603.30476
 21
1334.430301
 31
0.0
  0
LINE
  5
27C
330
A
100
AcDbEntity
  8
0
  6
Continuous
100
AcDbLine
 10
1584.09391
 20
1334.680301
 30
0.0
 11
1584.09391
 21
1338.180301
 31
0.0
  0
LINE
  5
27D
330
A
100
AcDbEntity
  8
0
  6
Continuous
100
AcDbLine
 10
1600.09391
 20
1334.680301
 30
0.0
 11
1590.40476
 21
1334.680301
 31
0.0
  0
LINE
  5
27E
330
A
100
AcDbEntity
  8
0
  6
Continuous
100
AcDbLine
 10
1586.40476
 20
1334.680301
 30
0.0
 11
1584.09391
 21
1334.680301
 31
0.0
  0
LINE
  5
27F
330
A
100
AcDbEntity
  8
0
  6
Continuous
100
AcDbLine
 10
1584.09391
 20
1338.180301
 30
0.0
 11
1586.40476
 21
1338.180301
 31
0.0
  0
LINE
  5
280
330
A
100
AcDbEntity
  8
0
  6
Continuous
100
AcDbLine
 10
1590.40476
 20
1338.180301
 30
0.0
 11
1600.09391
 21
1338.180301
 31
0.0
  0
LINE
  5
281
330
A
100
AcDbEntity
  8
0
  6
Continuous
100
AcDbLine
 10
1603.40476
 20
1437.430241
 30
0.0
 11
1603.40476
 21
886.430301
 31
0.0
  0
LINE
  5
282
330
A
100
AcDbEntity
  8
0
  6
Continuous
100
AcDbLine
 10
1577.90476
 20
1128.930301
 30
0.0
 11
1584.90476
 21
1128.930301
 31
0.0
  0
LINE
  5
283
330
A
100
AcDbEntity
  8
0
  6
Continuous
100
AcDbLine
 10
1577.90476
 20
1193.930301
 30
0.0
 11
1577.90476
 21
1128.930301
 31
0.0
  0
LINE
  5
284
330
A
100
AcDbEntity
  8
0
  6
Continuous
100
AcDbLine
 10
1584.90476
 20
1193.930301
 30
0.0
 11
1577.90476
 21
1193.930301
 31
0.0
  0
LINE
  5
285
330
A
100
AcDbEntity
  8
0
  6
Continuous
100
AcDbLine
 10
1598.90476
 20
1193.930301
 30
0.0
 11
1591.90476
 21
1193.930301
 31
0.0
  0
LINE
  5
286
330
A
100
AcDbEntity
  8
0
  6
Continuous
100
AcDbLine
 10
1598.90476
 20
1128.930301
 30
0.0
 11
1598.90476
 21
1193.930301
 31
0.0
  0
LINE
  5
287
330
A
100
AcDbEntity
  8
0
  6
Continuous
100
AcDbLine
 10
1591.90476
 20
1128.930301
 30
0.0
 11
1598.90476
 21
1128.930301
 31
0.0
  0
LINE
  5
288
330
A
100
AcDbEntity
  8
0
  6
Continuous
100
AcDbLine
 10
1573.40476
 20
916.4303009999999
 30
0.0
 11
1573.40476
 21
1407.430241
 31
0.0
  0
CIRCLE
  5
289
330
A
100
AcDbEntity
  8
0
  6
Continuous
100
AcDbCircle
 10
1588.40476
 20
1039.430301
 30
0.0
 40
4.5
  0
CIRCLE
  5
28A
330
A
100
AcDbEntity
  8
0
  6
Continuous
100
AcDbCircle
 10
1588.40476
 20
973.4303009999999
 30
0.0
 40
4.5
  0
LINE
  5
28B
330
A
100
AcDbEntity
  8
0
  6
Continuous
100
AcDbLine
 10
1591.65476
 20
1046.430301
 30
0.0
 11
1591.65476
 21
1128.930301
 31
0.0
  0
LINE
  5
28C
330
A
100
AcDbEntity
  8
0
  6
Continuous
100
AcDbLine
 10
1585.15476
 20
1046.430301
 30
0.0
 11
1585.15476
 21
1128.930301
 31
0.0
  0
LINE
  5
28D
330
A
100
AcDbEntity
  8
0
  6
Continuous
100
AcDbLine
 10
1585.15476
 20
1193.930301
 30
0.0
 11
1585.15476
 21
1277.430301
 31
0.0
  0
LINE
  5
28E
330
A
100
AcDbEntity
  8
0
  6
Continuous
100
AcDbLine
 10
1591.65476
 20
1193.930301
 30
0.0
 11
1591.65476
 21
1277.430301
 31
0.0
  0
CIRCLE
  5
28F
330
A
100
AcDbEntity
  8
0
  6
Continuous
100
AcDbCircle
 10
1538.40476
 20
901.430301
 30
0.0
 40
4.5
  0
CIRCLE
  5
290
330
A
100
AcDbEntity
  8
0
  6
Continuous
100
AcDbCircle
 10
1578.40476
 20
901.430301
 30
0.0
 40
4.5
  0
CIRCLE
  5
291
330
A
100
AcDbEntity
  8
0
  6
Continuous
100
AcDbCircle
 10
1588.40476
 20
911.430301
 30
0.0
 40
4.5
  0
CIRCLE
  5
292
330
A
100
AcDbEntity
  8
0
  6
Continuous
100
AcDbCircle
 10
1588.40476
 20
951.430301
 30
0.0
 40
4.5
  0
LINE
  5
293
330
A
100
AcDbEntity
  8
0
  6
Continuous
100
AcDbLine
 10
1085.90476
 20
898.180301
 30
0.0
 11
1528.40476
 21
898.180301
 31
0.0
  0
LINE
  5
294
330
A
100
AcDbEntity
  8
0
  6
Continuous
100
AcDbLine
 10
1085.90476
 20
904.6803009999999
 30
0.0
 11
1528.40476
 21
904.6803009999999
 31
0.0
  0
LINE
  5
295
330
A
100
AcDbEntity
  8
0
  6
Continuous
100
AcDbLine
 10
1591.65476
 20
961.430301
 30
0.0
 11
1591.65476
 21
966.4303009999999
 31
0.0
  0
LINE
  5
296
330
A
100
AcDbEntity
  8
0
  6
Continuous
100
AcDbLine
 10
1585.15476
 20
961.430301
 30
0.0
 11
1585.15476
 21
966.4303009999999
 31
0.0
  0
LINE
  5
297
330
A
100
AcDbEntity
  8
0
  6
Continuous
100
AcDbLine
 10
1584.50476
 20
1029.430301
 30
0.0
 11
1584.50476
 21
993.430301
 31
0.0
  0
LINE
  5
298
330
A
100
AcDbEntity
  8
0
  6
Continuous
100
AcDbLine
 10
1592.30476
 20
1029.430301
 30
0.0
 11
1592.30476
 21
993.430301
 31
0.0
  0
LINE
  5
299
330
A
100
AcDbEntity
  8
0
  6
Continuous
100
AcDbLine
 10
1586.40476
 20
1028.430301
 30
0.0
 11
1586.40476
 21
981.930301
 31
0.0
  0
LINE
  5
29A
330
A
100
AcDbEntity
  8
0
  6
Continuous
100
AcDbLine
 10
1586.40476
 20
981.930301
 30
0.0
 11
1590.40476
 21
981.930301
 31
0.0
  0
LINE
  5
29B
330
A
100
AcDbEntity
  8
0
  6
Continuous
100
AcDbLine
 10
1590.40476
 20
981.930301
 30
0.0
 11
1590.40476
 21
1028.430301
 31
0.0
  0
LINE
  5
29C
330
A
100
AcDbEntity
  8
0
  6
Continuous
100
AcDbLine
 10
1590.40476
 20
1028.430301
 30
0.0
 11
1586.40476
 21
1028.430301
 31
0.0
  0
LINE
  5
29D
330
A
100
AcDbEntity
  8
0
  6
Continuous
100
AcDbLine
 10
1576.80476
 20
983.930301
 30
0.0
 11
1576.80476
 21
968.9303009999999
 31
0.0
  0
LINE
  5
29E
330
A
100
AcDbEntity
  8
0
  6
Continuous
100
AcDbLine
 10
1576.80476
 20
968.9303009999999
 30
0.0
 11
1606.80476
 21
968.9303009999999
 31
0.0
  0
LINE
  5
29F
330
A
100
AcDbEntity
  8
0
  6
Continuous
100
AcDbLine
 10
1606.80476
 20
996.7312509999999
 30
0.0
 11
1606.80476
 21
951.6070309999999
 31
0.0
  0
LINE
  5
2A0
330
A
100
AcDbEntity
  8
0
  6
Continuous
100
AcDbLine
 10
1606.80476
 20
951.6070309999999
 30
0.0
 11
1610.00476
 21
951.6070309999999
 31
0.0
  0
LINE
  5
2A1
330
A
100
AcDbEntity
  8
0
  6
Continuous
100
AcDbLine
 10
1610.00476
 20
951.6070309999999
 30
0.0
 11
1610.00476
 21
996.7312509999999
 31
0.0
  0
LINE
  5
2A2
330
A
100
AcDbEntity
  8
0
  6
Continuous
100
AcDbLine
 10
1610.00476
 20
996.7312509999999
 30
0.0
 11
1606.80476
 21
996.7312509999999
 31
0.0
  0
LINE
  5
2A3
330
A
100
AcDbEntity
  8
0
  6
Continuous
100
AcDbLine
 10
1584.50476
 20
993.430301
 30
0.0
 11
1574.90476
 21
993.430301
 31
0.0
  0
LINE
  5
2A4
330
A
100
AcDbEntity
  8
0
  6
Continuous
100
AcDbLine
 10
1574.90476
 20
1029.430301
 30
0.0
 11
1584.50476
 21
1029.430301
 31
0.0
  0
LINE
  5
2A5
330
A
100
AcDbEntity
  8
0
  6
Continuous
100
AcDbLine
 10
1574.90476
 20
1029.430301
 30
0.0
 11
1574.90476
 21
993.430301
 31
0.0
  0
LINE
  5
2A6
330
A
100
AcDbEntity
  8
0
  6
Continuous
100
AcDbLine
 10
1601.90476
 20
1029.430301
 30
0.0
 11
1592.30476
 21
1029.430301
 31
0.0
  0
LINE
  5
2A7
330
A
100
AcDbEntity
  8
0
  6
Continuous
100
AcDbLine
 10
1601.90476
 20
1029.430301
 30
0.0
 11
1601.90476
 21
993.430301
 31
0.0
  0
LINE
  5
2A8
330
A
100
AcDbEntity
  8
0
  6
Continuous
100
AcDbLine
 10
1592.30476
 20
993.430301
 30
0.0
 11
1601.90476
 21
993.430301
 31
0.0
  0
LINE
  5
2A9
330
A
100
AcDbEntity
  8
0
  6
Continuous
100
AcDbLine
 10
1576.80476
 20
983.930301
 30
0.0
 11
1586.40476
 21
983.930301
 31
0.0
  0
LINE
  5
2AA
330
A
100
AcDbEntity
  8
0
  6
Continuous
100
AcDbLine
 10
1590.40476
 20
983.930301
 30
0.0
 11
1603.30476
 21
983.930301
 31
0.0
  0
LINE
  5
2AB
330
A
100
AcDbEntity
  8
0
  6
Continuous
100
AcDbLine
 10
1578.40476
 20
961.430301
 30
0.0
 11
1598.40476
 21
961.430301
 31
0.0
  0
LINE
  5
2AC
330
A
100
AcDbEntity
  8
0
  6
Continuous
100
AcDbLine
 10
1598.40476
 20
961.430301
 30
0.0
 11
1598.40476
 21
891.4303009999999
 31
0.0
  0
LINE
  5
2AD
330
A
100
AcDbEntity
  8
0
  6
Continuous
100
AcDbLine
 10
1598.40476
 20
891.4303009999999
 30
0.0
 11
1528.40476
 21
891.4303009999999
 31
0.0
  0
LINE
  5
2AE
330
A
100
AcDbEntity
  8
0
  6
Continuous
100
AcDbLine
 10
1528.40476
 20
891.4303009999999
 30
0.0
 11
1528.40476
 21
911.430301
 31
0.0
  0
LINE
  5
2AF
330
A
100
AcDbEntity
  8
0
  6
Continuous
100
AcDbLine
 10
1528.40476
 20
911.430301
 30
0.0
 11
1578.40476
 21
911.430301
 31
0.0
  0
LINE
  5
2B0
330
A
100
AcDbEntity
  8
0
  6
Continuous
100
AcDbLine
 10
1578.40476
 20
911.430301
 30
0.0
 11
1578.40476
 21
961.430301
 31
0.0
  0
LINE
  5
2B1
330
A
100
AcDbEntity
  8
0
  6
Continuous
100
AcDbLine
 10
1573.40476
 20
966.4303009999999
 30
0.0
 11
1603.40476
 21
966.4303009999999
 31
0.0
  0
LINE
  5
2B2
330
A
100
AcDbEntity
  8
0
  6
Continuous
100
AcDbLine
 10
1603.40476
 20
1046.430301
 30
0.0
 11
1573.40476
 21
1046.430301
 31
0.0
  0
LINE
  5
2B3
330
A
100
AcDbEntity
  8
0
  6
Continuous
100
AcDbLine
 10
1610.00476
 20
992.430301
 30
0.0
 11
1612.09391
 21
992.430301
 31
0.0
  0
LINE
  5
2B4
330
A
100
AcDbEntity
  8
0
  6
Continuous
100
AcDbLine
 10
1612.09391
 20
982.4303009999999
 30
0.0
 11
1610.00476
 21
982.4303009999999
 31
0.0
  0
LINE
  5
2B5
330
A
100
AcDbEntity
  8
0
  6
Continuous
100
AcDbLine
 10
1612.09391
 20
992.430301
 30
0.0
 11
1612.09391
 21
982.4303009999999
 31
0.0
  0
LINE
  5
2B6
330
A
100
AcDbEntity
  8
0
  6
Continuous
100
AcDbLine
 10
1606.80476
 20
983.4303009999999
 30
0.0
 11
1603.30476
 21
983.4303009999999
 31
0.0
  0
LINE
  5
2B7
330
A
100
AcDbEntity
  8
0
  6
Continuous
100
AcDbLine
 10
1603.30476
 20
983.4303009999999
 30
0.0
 11
1603.30476
 21
991.4303009999999
 31
0.0
  0
LINE
  5
2B8
330
A
100
AcDbEntity
  8
0
  6
Continuous
100
AcDbLine
 10
1603.30476
 20
991.4303009999999
 30
0.0
 11
1606.80476
 21
991.4303009999999
 31
0.0
  0
LINE
  5
2B9
330
A
100
AcDbEntity
  8
0
  6
Continuous
100
AcDbLine
 10
1606.80476
 20
984.9303009999999
 30
0.0
 11
1600.09391
 21
984.9303009999999
 31
0.0
  0
LINE
  5
2BA
330
A
100
AcDbEntity
  8
0
  6
Continuous
100
AcDbLine
 10
1606.80476
 20
989.930301
 30
0.0
 11
1600.09391
 21
989.930301
 31
0.0
  0
LINE
  5
2BB
330
A
100
AcDbEntity
  8
0
  6
Continuous
100
AcDbLine
 10
1600.09391
 20
984.9303009999999
 30
0.0
 11
1600.09391
 21
989.930301
 31
0.0
  0
LINE
  5
2BC
330
A
100
AcDbEntity
  8
0
  6
Continuous
100
AcDbLine
 10
1600.09391
 20
985.430301
 30
0.0
 11
1603.30476
 21
985.430301
 31
0.0
  0
LINE
  5
2BD
330
A
100
AcDbEntity
  8
0
  6
Continuous
100
AcDbLine
 10
1600.09391
 20
989.4303009999999
 30
0.0
 11
1603.30476
 21
989.4303009999999
 31
0.0
  0
LINE
  5
2BE
330
A
100
AcDbEntity
  8
0
  6
Continuous
100
AcDbLine
 10
1584.09391
 20
989.180301
 30
0.0
 11
1584.09391
 21
985.680301
 31
0.0
  0
LINE
  5
2BF
330
A
100
AcDbEntity
  8
0
  6
Continuous
100
AcDbLine
 10
1600.09391
 20
989.180301
 30
0.0
 11
1590.40476
 21
989.180301
 31
0.0
  0
LINE
  5
2C0
330
A
100
AcDbEntity
  8
0
  6
Continuous
100
AcDbLine
 10
1586.40476
 20
989.180301
 30
0.0
 11
1584.09391
 21
989.180301
 31
0.0
  0
LINE
  5
2C1
330
A
100
AcDbEntity
  8
0
  6
Continuous
100
AcDbLine
 10
1584.09391
 20
985.680301
 30
0.0
 11
1586.40476
 21
985.680301
 31
0.0
  0
LINE
  5
2C2
330
A
100
AcDbEntity
  8
0
  6
Continuous
100
AcDbLine
 10
1590.40476
 20
985.680301
 30
0.0
 11
1600.09391
 21
985.680301
 31
0.0
  0
LINE
  5
2C3
330
A
100
AcDbEntity
  8
0
  6
DASHDOT
100
AcDbLine
 10
1538.40476
 20
1413.911941
 30
0.0
 11
1538.40476
 21
1431.307441
 31
0.0
  0
LINE
  5
2C4
330
A
100
AcDbEntity
  8
0
  6
DASHDOT
100
AcDbLine
 10
1578.40476
 20
1413.911941
 30
0.0
 11
1578.40476
 21
1431.307441
 31
0.0
  0
LINE
  5
2C5
330
A
100
AcDbEntity
  8
0
  6
DASHDOT
100
AcDbLine
 10
1596.92312
 20
1412.430241
 30
0.0
 11
1579.52761
 21
1412.430241
 31
0.0
  0
LINE
  5
2C6
330
A
100
AcDbEntity
  8
0
  6
DASHDOT
100
AcDbLine
 10
1596.92312
 20
1372.430241
 30
0.0
 11
1579.52761
 21
1372.430241
 31
0.0
  0
LINE
  5
2C7
330
A
100
AcDbEntity
  8
0
  6
DASHDOT
100
AcDbLine
 10
1596.92312
 20
1350.430241
 30
0.0
 11
1579.52761
 21
1350.430241
 31
0.0
  0
LINE
  5
2C8
330
A
100
AcDbEntity
  8
0
  6
DASHDOT
100
AcDbLine
 10
1616.14081
 20
1336.430301
 30
0.0
 11
1577.58138
 21
1336.430301
 31
0.0
  0
LINE
  5
2C9
330
A
100
AcDbEntity
  8
0
  6
DASHDOT
100
AcDbLine
 10
1607.45429
 20
1312.430301
 30
0.0
 11
1570.57389
 21
1312.430301
 31
0.0
  0
LINE
  5
2CA
330
A
100
AcDbEntity
  8
0
  6
DASHDOT
100
AcDbLine
 10
1596.92312
 20
1284.430301
 30
0.0
 11
1579.52761
 21
1284.430301
 31
0.0
  0
LINE
  5
2CB
330
A
100
AcDbEntity
  8
0
  6
DASHDOT
100
AcDbLine
 10
1602.97907
 20
1161.430301
 30
0.0
 11
1564.81815
 21
1161.430301
 31
0.0
  0
LINE
  5
2CC
330
A
100
AcDbEntity
  8
0
  6
DASHDOT
100
AcDbLine
 10
1596.92312
 20
1039.430301
 30
0.0
 11
1579.52761
 21
1039.430301
 31
0.0
  0
LINE
  5
2CD
330
A
100
AcDbEntity
  8
0
  6
DASHDOT
100
AcDbLine
 10
1607.45429
 20
1011.430301
 30
0.0
 11
1570.57389
 21
1011.430301
 31
0.0
  0
LINE
  5
2CE
330
A
100
AcDbEntity
  8
0
  6
DASHDOT
100
AcDbLine
 10
1616.14081
 20
987.430301
 30
0.0
 11
1577.58138
 21
987.430301
 31
0.0
  0
LINE
  5
2CF
330
A
100
AcDbEntity
  8
0
  6
DASHDOT
100
AcDbLine
 10
1596.92312
 20
973.4303009999999
 30
0.0
 11
1579.52761
 21
973.4303009999999
 31
0.0
  0
LINE
  5
2D0
330
A
100
AcDbEntity
  8
0
  6
DASHDOT
100
AcDbLine
 10
1596.92312
 20
951.430301
 30
0.0
 11
1579.52761
 21
951.430301
 31
0.0
  0
LINE
  5
2D1
330
A
100
AcDbEntity
  8
0
  6
DASHDOT
100
AcDbLine
 10
1596.92312
 20
911.430301
 30
0.0
 11
1579.52761
 21
911.430301
 31
0.0
  0
LINE
  5
2D2
330
A
100
AcDbEntity
  8
0
  6
DASHDOT
100
AcDbLine
 10
1578.40476
 20
909.948651
 30
0.0
 11
1578.40476
 21
892.5531509999999
 31
0.0
  0
LINE
  5
2D3
330
A
100
AcDbEntity
  8
0
  6
DASHDOT
100
AcDbLine
 10
1538.40476
 20
909.948651
 30
0.0
 11
1538.40476
 21
892.5531509999999
 31
0.0
  0
LINE
  5
2D4
330
A
100
AcDbEntity
  8
0
  6
DOT
100
AcDbLine
 10
1593.90476
 20
1294.430301
 30
0.0
 11
1593.90476
 21
1330.430301
 31
0.0
  0
LINE
  5
2D5
330
A
100
AcDbEntity
  8
0
  6
DOT
100
AcDbLine
 10
1582.90476
 20
1294.430301
 30
0.0
 11
1582.90476
 21
1330.430301
 31
0.0
  0
LINE
  5
2D6
330
A
100
AcDbEntity
  8
0
  6
DOT
100
AcDbLine
 10
1593.90476
 20
1029.430301
 30
0.0
 11
1593.90476
 21
993.430301
 31
0.0
  0
LINE
  5
2D7
330
A
100
AcDbEntity
  8
0
  6
DOT
100
AcDbLine
 10
1582.90476
 20
1029.430301
 30
0.0
 11
1582.90476
 21
993.430301
 31
0.0
  0
LINE
  5
2D8
330
A
100
AcDbEntity
  8
0
  6
Continuous
100
AcDbLine
 10
643.4003299999999
 20
916.4303009999999
 30
0.0
 11
1573.40476
 21
916.4303009999999
 31
0.0
  0
LINE
  5
2D9
330
A
100
AcDbEntity
  8
0
  6
Continuous
100
AcDbLine
 10
1603.40476
 20
886.430301
 30
0.0
 11
503.40477
 21
886.430301
 31
0.0
  0
LINE
  5
2DA
330
A
100
AcDbEntity
  8
0
  6
Continuous
100
AcDbLine
 10
1573.40476
 20
1407.430241
 30
0.0
 11
643.4003299999999
 21
1407.430241
 31
0.0
  0
LINE
  5
2DB
330
A
100
AcDbEntity
  8
0
  6
Continuous
100
AcDbLine
 10
503.40477
 20
1437.430241
 30
0.0
 11
1603.40476
 21
1437.430241
 31
0.0
  0
LINE
  5
2DC
330
A
100
AcDbEntity
  8
0
  6
Continuous
100
AcDbLine
 10
971.17368
 20
546.48814
 30
0.0
 11
970.9007900000001
 21
536.49186
 31
0.0
  0
LINE
  5
2DD
330
A
100
AcDbEntity
  8
0
  6
Continuous
100
AcDbLine
 10
969.17442
 20
546.54272
 30
0.0
 11
968.9015300000001
 21
536.54644
 31
0.0
  0
ARC
  5
2DE
330
A
100
AcDbEntity
  8
0
  6
Continuous
100
AcDbCircle
 10
970.1740499999999
 20
546.51543
 30
0.0
 40
1.0
100
AcDbArc
 50
358.43624
 51
178.43624
  0
ARC
  5
2DF
330
A
100
AcDbEntity
  8
0
  6
Continuous
100
AcDbCircle
 10
969.90116
 20
536.5191499999999
 30
0.0
 40
1.0
100
AcDbArc
 50
178.43624
 51
358.43624
  0
LINE
  5
2E0
330
A
100
AcDbEntity
  8
0
  6
Continuous
100
AcDbLine
 10
953.2401999999999
 20
542.9762199999999
 30
0.0
 11
964.67529
 21
542.6640499999999
 31
0.0
  0
LINE
  5
2E1
330
A
100
AcDbEntity
  8
0
  6
Continuous
100
AcDbLine
 10
953.18562
 20
540.97697
 30
0.0
 11
965.79128
 21
540.6328399999999
 31
0.0
  0
LINE
  5
2E2
330
A
100
AcDbEntity
  8
0
  6
Continuous
100
AcDbLine
 10
964.67529
 20
542.6640499999999
 30
0.0
 11
967.3164300000001
 21
547.0830399999999
 31
0.0
  0
LINE
  5
2E3
330
A
100
AcDbEntity
  8
0
  6
Continuous
100
AcDbLine
 10
965.79128
 20
540.6328399999999
 30
0.0
 11
969.0331699999999
 21
546.05698
 31
0.0
  0
ARC
  5
2E4
330
A
100
AcDbEntity
  8
0
  6
Continuous
100
AcDbCircle
 10
968.1748
 20
546.5700099999999
 30
0.0
 40
1.0
100
AcDbArc
 50
329.13412
 51
149.13412
  0
ARC
  5
2E5
330
A
100
AcDbEntity
  8
0
  6
Continuous
100
AcDbCircle
 10
953.21291
 20
541.9765899999999
 30
0.0
 40
1.000008
100
AcDbArc
 50
88.43624300000001
 51
268.43624
  0
LINE
  5
2E6
330
A
100
AcDbEntity
  8
0
  6
Continuous
100
AcDbLine
 10
984.2188399999999
 20
546.41947
 30
0.0
 11
980.9470599999999
 21
536.50506
 31
0.0
  0
LINE
  5
2E7
330
A
100
AcDbEntity
  8
0
  6
Continuous
100
AcDbLine
 10
986.11809
 20
545.7927099999999
 30
0.0
 11
982.8463199999999
 21
535.8782999999999
 31
0.0
  0
ARC
  5
2E8
330
A
100
AcDbEntity
  8
0
  6
Continuous
100
AcDbCircle
 10
985.1684699999999
 20
546.1060899999999
 30
0.0
 40
1.0
100
AcDbArc
 50
341.7369900000001
 51
161.73699
  0
ARC
  5
2E9
330
A
100
AcDbEntity
  8
0
  6
Continuous
100
AcDbCircle
 10
981.8966900000001
 20
536.19168
 30
0.0
 40
1.0
100
AcDbArc
 50
161.73699
 51
341.7369900000001
  0
LINE
  5
2EA
330
A
100
AcDbEntity
  8
0
  6
Continuous
100
AcDbLine
 10
979.2206999999999
 20
546.5559099999999
 30
0.0
 11
975.9489199999999
 21
536.6415099999999
 31
0.0
  0
LINE
  5
2EB
330
A
100
AcDbEntity
  8
0
  6
Continuous
100
AcDbLine
 10
981.11996
 20
545.9291599999999
 30
0.0
 11
977.8481800000001
 21
536.01475
 31
0.0
  0
ARC
  5
2EC
330
A
100
AcDbEntity
  8
0
  6
Continuous
100
AcDbCircle
 10
980.1703299999999
 20
546.2425299999999
 30
0.0
 40
1.0
100
AcDbArc
 50
341.7369900000001
 51
161.73699
  0
ARC
  5
2ED
330
A
100
AcDbEntity
  8
0
  6
Continuous
100
AcDbCircle
 10
976.8985499999999
 20
536.3281299999999
 30
0.0
 40
1.0
100
AcDbArc
 50
161.73699
 51
341.7369900000001
  0
LINE
  5
2EE
330
A
100
AcDbEntity
  8
0
  6
Continuous
100
AcDbLine
 10
974.2225599999999
 20
546.69236
 30
0.0
 11
970.95079
 21
536.77795
 31
0.0
  0
LINE
  5
2EF
330
A
100
AcDbEntity
  8
0
  6
Continuous
100
AcDbLine
 10
976.12182
 20
546.0656
 30
0.0
 11
972.8500399999999
 21
536.15119
 31
0.0
  0
ARC
  5
2F0
330
A
100
AcDbEntity
  8
0
  6
Continuous
100
AcDbCircle
 10
975.1721899999999
 20
546.3789799999999
 30
0.0
 40
1.0
100
AcDbArc
 50
341.7369900000001
 51
161.73699
  0
ARC
  5
2F1
330
A
100
AcDbEntity
  8
0
  6
Continuous
100
AcDbCircle
 10
971.9004099999999
 20
536.4645699999999
 30
0.0
 40
1.0
100
AcDbArc
 50
161.73699
 51
341.7369900000001
  0
LINE
  5
2F2
330
A
100
AcDbEntity
  8
0
  6
Continuous
100
AcDbLine
 10
1135.06276
 20
542.01405
 30
0.0
 11
1134.78986
 21
532.01778
 31
0.0
  0
LINE
  5
2F3
330
A
100
AcDbEntity
  8
0
  6
Continuous
100
AcDbLine
 10
1137.06201
 20
541.95947
 30
0.0
 11
1136.78912
 21
531.9632
 31
0.0
  0
ARC
  5
2F4
330
A
100
AcDbEntity
  8
0
  6
Continuous
100
AcDbCircle
 10
1136.06239
 20
541.9867599999999
 30
0.0
 40
1.0
100
AcDbArc
 50
358.43624
 51
178.43624
  0
ARC
  5
2F5
330
A
100
AcDbEntity
  8
0
  6
Continuous
100
AcDbCircle
 10
1135.78949
 20
531.99049
 30
0.0
 40
1.0
100
AcDbArc
 50
178.43624
 51
358.43624
  0
LINE
  5
2F6
330
A
100
AcDbEntity
  8
0
  6
Continuous
100
AcDbLine
 10
1152.77792
 20
537.52895
 30
0.0
 11
1141.34283
 21
537.84112
 31
0.0
  0
LINE
  5
2F7
330
A
100
AcDbEntity
  8
0
  6
Continuous
100
AcDbLine
 10
1152.72334
 20
535.52969
 30
0.0
 11
1140.11769
 21
535.87382
 31
0.0
  0
LINE
  5
2F8
330
A
100
AcDbEntity
  8
0
  6
Continuous
100
AcDbLine
 10
1141.34283
 20
537.84112
 30
0.0
 11
1138.94672
 21
542.3976200000001
 31
0.0
  0
LINE
  5
2F9
330
A
100
AcDbEntity
  8
0
  6
Continuous
100
AcDbLine
 10
1140.11769
 20
535.87382
 30
0.0
 11
1137.17656
 21
541.46675
 31
0.0
  0
ARC
  5
2FA
330
A
100
AcDbEntity
  8
0
  6
Continuous
100
AcDbCircle
 10
1138.06164
 20
541.93218
 30
0.0
 40
1.0
100
AcDbArc
 50
27.73835900000001
 51
207.73835
  0
ARC
  5
2FB
330
A
100
AcDbEntity
  8
0
  6
Continuous
100
AcDbCircle
 10
1152.75063
 20
536.52931
 30
0.0
 40
1.000008
100
AcDbArc
 50
268.43624
 51
88.43624300000001
  0
LINE
  5
2FC
330
A
100
AcDbEntity
  8
0
  6
Continuous
100
AcDbLine
 10
1133.1135
 20
542.35472
 30
0.0
 11
1129.84173
 21
532.4403099999999
 31
0.0
  0
LINE
  5
2FD
330
A
100
AcDbEntity
  8
0
  6
Continuous
100
AcDbLine
 10
1135.01276
 20
541.7279599999999
 30
0.0
 11
1131.74098
 21
531.8135499999999
 31
0.0
  0
ARC
  5
2FE
330
A
100
AcDbEntity
  8
0
  6
Continuous
100
AcDbCircle
 10
1134.06313
 20
542.04134
 30
0.0
 40
1.0
100
AcDbArc
 50
341.7369900000001
 51
161.73699
  0
ARC
  5
2FF
330
A
100
AcDbEntity
  8
0
  6
Continuous
100
AcDbCircle
 10
1130.79135
 20
532.1269299999999
 30
0.0
 40
1.0
100
AcDbArc
 50
161.73699
 51
341.7369900000001
  0
LINE
  5
300
330
A
100
AcDbEntity
  8
0
  6
Continuous
100
AcDbLine
 10
1128.11536
 20
542.49117
 30
0.0
 11
1124.84359
 21
532.5767599999998
 31
0.0
  0
LINE
  5
301
330
A
100
AcDbEntity
  8
0
  6
Continuous
100
AcDbLine
 10
1130.01462
 20
541.8644099999998
 30
0.0
 11
1126.74284
 21
531.95
 31
0.0
  0
ARC
  5
302
330
A
100
AcDbEntity
  8
0
  6
Continuous
100
AcDbCircle
 10
1129.06499
 20
542.1777900000001
 30
0.0
 40
1.0
100
AcDbArc
 50
341.7369900000001
 51
161.73699
  0
ARC
  5
303
330
A
100
AcDbEntity
  8
0
  6
Continuous
100
AcDbCircle
 10
1125.79322
 20
532.26338
 30
0.0
 40
1.0
100
AcDbArc
 50
161.73699
 51
341.7369900000001
  0
LINE
  5
304
330
A
100
AcDbEntity
  8
0
  6
Continuous
100
AcDbLine
 10
1123.11723
 20
542.6276099999999
 30
0.0
 11
1119.84545
 21
532.71321
 31
0.0
  0
LINE
  5
305
330
A
100
AcDbEntity
  8
0
  6
Continuous
100
AcDbLine
 10
1125.01648
 20
542.00086
 30
0.0
 11
1121.74471
 21
532.0864499999999
 31
0.0
  0
ARC
  5
306
330
A
100
AcDbEntity
  8
0
  6
Continuous
100
AcDbCircle
 10
1124.06685
 20
542.3142299999999
 30
0.0
 40
1.0
100
AcDbArc
 50
341.7369900000001
 51
161.73699
  0
ARC
  5
307
330
A
100
AcDbEntity
  8
0
  6
Continuous
100
AcDbCircle
 10
1120.79508
 20
532.3998299999999
 30
0.0
 40
1.0
100
AcDbArc
 50
161.73699
 51
341.7369900000001
  0
LINE
  5
308
330
A
100
AcDbEntity
  8
0
  6
Continuous
100
AcDbLine
 10
865.5354599999999
 20
514.1993099999999
 30
0.0
 11
865.5354599999999
 21
516.19931
 31
0.0
  0
LINE
  5
309
330
A
100
AcDbEntity
  8
0
  6
Continuous
100
AcDbLine
 10
865.5354599999999
 20
516.19931
 30
0.0
 11
913.5354599999999
 21
516.19931
 31
0.0
  0
LINE
  5
30A
330
A
100
AcDbEntity
  8
0
  6
Continuous
100
AcDbLine
 10
913.5354599999999
 20
516.19931
 30
0.0
 11
913.5354599999999
 21
544.1993099999999
 31
0.0
  0
LINE
  5
30B
330
A
100
AcDbEntity
  8
0
  6
Continuous
100
AcDbLine
 10
913.5354599999999
 20
544.1993099999999
 30
0.0
 11
915.5354599999999
 21
544.1993099999999
 31
0.0
  0
LINE
  5
30C
330
A
100
AcDbEntity
  8
0
  6
Continuous
100
AcDbLine
 10
915.5354599999999
 20
544.1993099999999
 30
0.0
 11
915.5354599999999
 21
514.1993099999999
 31
0.0
  0
LINE
  5
30D
330
A
100
AcDbEntity
  8
0
  6
Continuous
100
AcDbLine
 10
1231.26866
 20
564.1993099999999
 30
0.0
 11
1231.26866
 21
562.19931
 31
0.0
  0
LINE
  5
30E
330
A
100
AcDbEntity
  8
0
  6
Continuous
100
AcDbLine
 10
1231.26866
 20
562.19931
 30
0.0
 11
1183.26866
 21
562.19931
 31
0.0
  0
LINE
  5
30F
330
A
100
AcDbEntity
  8
0
  6
Continuous
100
AcDbLine
 10
1183.26866
 20
562.19931
 30
0.0
 11
1183.26866
 21
534.1993099999999
 31
0.0
  0
LINE
  5
310
330
A
100
AcDbEntity
  8
0
  6
Continuous
100
AcDbLine
 10
1183.26866
 20
534.1993099999999
 30
0.0
 11
1181.26866
 21
534.1993099999999
 31
0.0
  0
LINE
  5
311
330
A
100
AcDbEntity
  8
0
  6
Continuous
100
AcDbLine
 10
1181.26866
 20
534.1993099999999
 30
0.0
 11
1181.26866
 21
564.1993099999999
 31
0.0
  0
LINE
  5
312
330
A
100
AcDbEntity
  8
0
  6
Continuous
100
AcDbLine
 10
913.5354599999999
 20
539.6993099999999
 30
0.0
 11
915.5354599999999
 21
539.6993099999999
 31
0.0
  0
LINE
  5
313
330
A
100
AcDbEntity
  8
0
  6
Continuous
100
AcDbLine
 10
913.5354599999999
 20
524.69931
 30
0.0
 11
915.5354599999999
 21
524.69931
 31
0.0
  0
LINE
  5
314
330
A
100
AcDbEntity
  8
0
  6
Continuous
100
AcDbLine
 10
1183.26866
 20
538.6993099999999
 30
0.0
 11
1181.26866
 21
538.6993099999999
 31
0.0
  0
LINE
  5
315
330
A
100
AcDbEntity
  8
0
  6
Continuous
100
AcDbLine
 10
1183.26866
 20
553.69931
 30
0.0
 11
1181.26866
 21
553.69931
 31
0.0
  0
LINE
  5
316
330
A
100
AcDbEntity
  8
0
  6
Continuous
100
AcDbLine
 10
947.29086
 20
544.6812999999999
 30
0.0
 11
922.8462599999998
 21
549.7807199999999
 31
0.0
  0
LINE
  5
317
330
A
100
AcDbEntity
  8
0
  6
Continuous
100
AcDbLine
 10
922.8462599999998
 20
534.1178999999999
 30
0.0
 11
947.29086
 21
539.2173099999999
 31
0.0
  0
LINE
  5
318
330
A
100
AcDbEntity
  8
0
  6
Continuous
100
AcDbLine
 10
946.3613500000001
 20
548.9613199999999
 30
0.0
 11
923.6631199999999
 21
553.6964199999999
 31
0.0
  0
LINE
  5
319
330
A
100
AcDbEntity
  8
0
  6
Continuous
100
AcDbLine
 10
923.6631199999999
 20
530.20219
 30
0.0
 11
946.3613500000001
 21
534.93729
 31
0.0
  0
LINE
  5
31A
330
A
100
AcDbEntity
  8
0
  6
Continuous
100
AcDbLine
 10
1178.24995
 20
541.9493099999999
 30
0.0
 11
1157.24995
 21
541.9493099999999
 31
0.0
  0
LINE
  5
31B
330
A
100
AcDbEntity
  8
0
  6
Continuous
100
AcDbLine
 10
1178.24995
 20
545.9493099999999
 30
0.0
 11
1157.24995
 21
545.9493099999999
 31
0.0
  0
LINE
  5
31C
330
A
100
AcDbEntity
  8
0
  6
Continuous
100
AcDbLine
 10
1157.24995
 20
524.4493099999999
 30
0.0
 11
1157.24995
 21
533.4493099999999
 31
0.0
  0
LINE
  5
31D
330
A
100
AcDbEntity
  8
0
  6
Continuous
100
AcDbLine
 10
1157.24995
 20
533.4493099999999
 30
0.0
 11
1170.24995
 21
533.4493099999999
 31
0.0
  0
LINE
  5
31E
330
A
100
AcDbEntity
  8
0
  6
Continuous
100
AcDbLine
 10
1170.24995
 20
533.4493099999999
 30
0.0
 11
1170.24995
 21
524.4493099999999
 31
0.0
  0
LINE
  5
31F
330
A
100
AcDbEntity
  8
0
  6
Continuous
100
AcDbLine
 10
1170.24995
 20
524.4493099999999
 30
0.0
 11
1157.24995
 21
524.4493099999999
 31
0.0
  0
LINE
  5
320
330
A
100
AcDbEntity
  8
0
  6
DASHDOT
100
AcDbLine
 10
875.53546
 20
522.7415099999999
 30
0.0
 11
875.53546
 21
505.7658599999999
 31
0.0
  0
LINE
  5
321
330
A
100
AcDbEntity
  8
0
  6
DASHDOT
100
AcDbLine
 10
900.53546
 20
522.7415099999999
 30
0.0
 11
900.53546
 21
505.7658599999999
 31
0.0
  0
LINE
  5
322
330
A
100
AcDbEntity
  8
0
  6
DASHDOT
100
AcDbLine
 10
1161.66835
 20
536.28587
 30
0.0
 11
944.6991699999999
 21
542.20902
 31
0.0
  0
LINE
  5
323
330
A
100
AcDbEntity
  8
0
  6
DASHDOT
100
AcDbLine
 10
970.2298699999998
 20
548.5599399999999
 30
0.0
 11
969.8399300000001
 21
534.2762799999999
 31
0.0
  0
LINE
  5
324
330
A
100
AcDbEntity
  8
0
  6
DASHDOT
100
AcDbLine
 10
975.8613999999999
 20
548.46747
 30
0.0
 11
971.2235199999998
 21
534.41339
 31
0.0
  0
LINE
  5
325
330
A
100
AcDbEntity
  8
0
  6
DASHDOT
100
AcDbLine
 10
969.23509
 20
548.34402
 30
0.0
 11
965.2332799999999
 21
541.64845
 31
0.0
  0
LINE
  5
326
330
A
100
AcDbEntity
  8
0
  6
DASHDOT
100
AcDbLine
 10
980.9767800000001
 20
548.6863099999999
 30
0.0
 11
976.1815999999999
 21
534.1555499999999
 31
0.0
  0
LINE
  5
327
330
A
100
AcDbEntity
  8
0
  6
DASHDOT
100
AcDbLine
 10
985.8492400000001
 20
548.1690099999999
 30
0.0
 11
981.1070199999999
 21
533.7987599999999
 31
0.0
  0
LINE
  5
328
330
A
100
AcDbEntity
  8
0
  6
DASHDOT
100
AcDbLine
 10
1124.65486
 20
544.0960599999999
 30
0.0
 11
1120.15159
 21
530.4498599999999
 31
0.0
  0
LINE
  5
329
330
A
100
AcDbEntity
  8
0
  6
DASHDOT
100
AcDbLine
 10
1129.63006
 20
543.8901099999999
 30
0.0
 11
1125.16183
 21
530.35011
 31
0.0
  0
LINE
  5
32A
330
A
100
AcDbEntity
  8
0
  6
DASHDOT
100
AcDbLine
 10
1134.62239
 20
543.7360599999999
 30
0.0
 11
1130.08965
 21
530.0005599999999
 31
0.0
  0
LINE
  5
32B
330
A
100
AcDbEntity
  8
0
  6
DASHDOT
100
AcDbLine
 10
1136.11322
 20
543.84892
 30
0.0
 11
1135.73053
 21
529.83051
 31
0.0
  0
LINE
  5
32C
330
A
100
AcDbEntity
  8
0
  6
DASHDOT
100
AcDbLine
 10
1137.34477
 20
543.2953999999999
 30
0.0
 11
1140.73026
 21
536.85747
 31
0.0
  0
LINE
  5
32D
330
A
100
AcDbEntity
  8
0
  6
DASHDOT
100
AcDbLine
 10
1152.78885
 20
537.92937
 30
0.0
 11
1152.71065
 21
535.0646799999999
 31
0.0
  0
LINE
  5
32E
330
A
100
AcDbEntity
  8
0
  6
DASHDOT
100
AcDbLine
 10
1178.24995
 20
543.9493099999999
 30
0.0
 11
1157.24995
 21
543.9493099999999
 31
0.0
  0
ARC
  5
32F
330
A
100
AcDbEntity
  8
0
  6
DASHDOT
100
AcDbCircle
 10
1157.24995
 20
536.4493099999999
 30
0.0
 40
7.5
100
AcDbArc
 50
90.0
 51
270.0
  0
LINE
  5
330
330
A
100
AcDbEntity
  8
0
  6
DASHDOT
100
AcDbLine
 10
1157.24995
 20
528.9493099999999
 30
0.0
 11
1178.24995
 21
528.9493099999999
 31
0.0
  0
ARC
  5
331
330
A
100
AcDbEntity
  8
0
  6
DASHDOT
100
AcDbCircle
 10
1178.24995
 20
536.4493099999999
 30
0.0
 40
7.5
100
AcDbArc
 50
270.0
 51
90.0
  0
LINE
  5
332
330
A
100
AcDbEntity
  8
0
  6
DASHDOT
100
AcDbLine
 10
1221.26866
 20
555.65711
 30
0.0
 11
1221.26866
 21
572.63275
 31
0.0
  0
LINE
  5
333
330
A
100
AcDbEntity
  8
0
  6
DASHDOT
100
AcDbLine
 10
1196.26866
 20
555.65711
 30
0.0
 11
1196.26866
 21
572.63275
 31
0.0
  0
ARC
  5
334
330
A
100
AcDbEntity
  8
0
  6
Continuous
100
AcDbCircle
 10
1157.24995
 20
536.4493099999999
 30
0.0
 40
9.5
100
AcDbArc
 50
90.0
 51
172.653438
  0
ARC
  5
335
330
A
100
AcDbEntity
  8
0
  6
Continuous
100
AcDbCircle
 10
1157.24995
 20
536.4493099999999
 30
0.0
 40
5.5
100
AcDbArc
 50
90.0
 51
168.413667
  0
ARC
  5
336
330
A
100
AcDbEntity
  8
0
  6
Continuous
100
AcDbCircle
 10
1157.24995
 20
536.4493099999999
 30
0.0
 40
9.5
100
AcDbArc
 50
184.738238
 51
270.0
  0
ARC
  5
337
330
A
100
AcDbEntity
  8
0
  6
Continuous
100
AcDbCircle
 10
1157.24995
 20
536.4493099999999
 30
0.0
 40
5.5
100
AcDbArc
 50
189.365743
 51
270.0
  0
LINE
  5
338
330
A
100
AcDbEntity
  8
0
  6
Continuous
100
AcDbLine
 10
1170.24995
 20
530.94931
 30
0.0
 11
1178.24995
 21
530.94931
 31
0.0
  0
LINE
  5
339
330
A
100
AcDbEntity
  8
0
  6
Continuous
100
AcDbLine
 10
1170.24995
 20
526.94931
 30
0.0
 11
1178.24995
 21
526.94931
 31
0.0
  0
ARC
  5
33A
330
A
100
AcDbEntity
  8
0
  6
Continuous
100
AcDbCircle
 10
1178.24995
 20
536.4493099999999
 30
0.0
 40
5.5
100
AcDbArc
 50
270.0
 51
24.147867
  0
ARC
  5
33B
330
A
100
AcDbEntity
  8
0
  6
Continuous
100
AcDbCircle
 10
1178.24995
 20
536.4493099999999
 30
0.0
 40
5.5
100
AcDbArc
 50
56.71141
 51
90.0
  0
ARC
  5
33C
330
A
100
AcDbEntity
  8
0
  6
Continuous
100
AcDbCircle
 10
1178.24995
 20
536.4493099999999
 30
0.0
 40
9.5
100
AcDbArc
 50
270.0
 51
58.11033000000001
  0
ARC
  5
33D
330
A
100
AcDbEntity
  8
0
  6
Continuous
100
AcDbCircle
 10
1178.24995
 20
536.4493099999999
 30
0.0
 40
9.5
100
AcDbArc
 50
71.47255
 51
90.0
  0
LINE
  5
33E
330
A
100
AcDbEntity
  8
0
  6
DASHDOT
100
AcDbLine
 10
953.2511300000001
 20
543.37664
 30
0.0
 11
953.17293
 21
540.5119599999999
 31
0.0
  0
ARC
  5
33F
330
A
100
AcDbEntity
  8
0
  6
DASHDOT
100
AcDbCircle
 10
950.21254
 20
541.9493099999999
 30
0.0
 40
6.0
100
AcDbArc
 50
234.59816
 51
125.40183
  0
LINE
  5
340
330
A
100
AcDbEntity
  8
0
  6
DASHDOT
100
AcDbLine
 10
946.7367000000001
 20
546.83996
 30
0.0
 11
923.25469
 21
551.73857
 31
0.0
  0
LINE
  5
341
330
A
100
AcDbEntity
  8
0
  6
DASHDOT
100
AcDbLine
 10
946.7367000000001
 20
537.0586499999999
 30
0.0
 11
923.25469
 21
532.1600499999999
 31
0.0
  0
ARC
  5
342
330
A
100
AcDbEntity
  8
0
  6
DASHDOT
100
AcDbCircle
 10
921.2125399999999
 20
541.9493099999999
 30
0.0
 40
10.0
100
AcDbArc
 50
78.21646300000001
 51
281.78353
  0
ARC
  5
343
330
A
100
AcDbEntity
  8
0
  6
Continuous
100
AcDbCircle
 10
950.21254
 20
541.9493099999999
 30
0.0
 40
4.0
100
AcDbArc
 50
14.534631
 51
136.92157
  0
ARC
  5
344
330
A
100
AcDbEntity
  8
0
  6
Continuous
100
AcDbCircle
 10
950.21254
 20
541.9493099999999
 30
0.0
 40
4.0
100
AcDbArc
 50
223.07842
 51
345.56792
  0
ARC
  5
345
330
A
100
AcDbEntity
  8
0
  6
Continuous
100
AcDbCircle
 10
950.21254
 20
541.9493099999999
 30
0.0
 40
8.0
100
AcDbArc
 50
241.22318
 51
352.042773
  0
ARC
  5
346
330
A
100
AcDbEntity
  8
0
  6
Continuous
100
AcDbCircle
 10
950.21254
 20
541.9493099999999
 30
0.0
 40
8.0
100
AcDbArc
 50
6.405624999999999
 51
118.77681
  0
ARC
  5
347
330
A
100
AcDbEntity
  8
0
  6
Continuous
100
AcDbCircle
 10
921.2125399999999
 20
541.9493099999999
 30
0.0
 40
8.0
100
AcDbArc
 50
78.21646300000001
 51
196.334823
  0
ARC
  5
348
330
A
100
AcDbEntity
  8
0
  6
Continuous
100
AcDbCircle
 10
921.2125399999999
 20
541.9493099999999
 30
0.0
 40
8.0
100
AcDbArc
 50
224.794774
 51
281.78353
  0
ARC
  5
349
330
A
100
AcDbEntity
  8
0
  6
Continuous
100
AcDbCircle
 10
921.2125399999999
 20
541.9493099999999
 30
0.0
 40
12.0
100
AcDbArc
 50
78.21646300000001
 51
230.226323
  0
ARC
  5
34A
330
A
100
AcDbEntity
  8
0
  6
Continuous
100
AcDbCircle
 10
921.2125399999999
 20
541.9493099999999
 30
0.0
 40
12.0
100
AcDbArc
 50
241.764937
 51
281.78353
  0
LINE
  5
34B
330
A
100
AcDbEntity
  8
0
  6
DIVIDE
100
AcDbLine
 10
1138.06164
 20
541.932184
 30
0.0
 11
968.1748
 21
546.570008
 31
0.0
  0
LINE
  5
34C
330
A
100
AcDbEntity
  8
0
  6
DIVIDE
100
AcDbLine
 10
1135.78949
 20
531.9904849999999
 30
0.0
 11
967.2990699999999
 21
536.5901899999999
 31
0.0
  0
LINE
  5
34D
330
A
100
AcDbEntity
  8
0
  6
DOT
100
AcDbLine
 10
668.4003299999999
 20
560.9993099999999
 30
0.0
 11
608.4003299999999
 21
560.9993099999999
 31
0.0
  0
LINE
  5
34E
330
A
100
AcDbEntity
  8
0
  6
DOT
100
AcDbLine
 10
643.4003299999999
 20
492.1545799999999
 30
0.0
 11
643.4003299999999
 21
517.39931
 31
0.0
  0
LINE
  5
34F
330
A
100
AcDbEntity
  8
0
  6
DOT
100
AcDbLine
 10
643.4003299999999
 20
517.39931
 30
0.0
 11
608.4003299999999
 21
517.39931
 31
0.0
  0
LINE
  5
350
330
A
100
AcDbEntity
  8
0
  6
DOT
100
AcDbLine
 10
583.4003299999999
 20
514.1993099999999
 30
0.0
 11
668.4003299999999
 21
514.1993099999999
 31
0.0
  0
LINE
  5
351
330
A
100
AcDbEntity
  8
0
  6
DASHDOT
100
AcDbLine
 10
518.4047699999999
 20
549.91177
 30
0.0
 11
518.4047699999999
 21
622.81982
 31
0.0
  0
LINE
  5
352
330
A
100
AcDbEntity
  8
0
  6
DASHDOT
100
AcDbLine
 10
528.40477
 20
623.0201400000001
 30
0.0
 11
528.40477
 21
605.62693
 31
0.0
  0
LINE
  5
353
330
A
100
AcDbEntity
  8
0
  6
DASHDOT
100
AcDbLine
 10
568.40476
 20
623.0201400000001
 30
0.0
 11
568.40476
 21
601.7627899999999
 31
0.0
  0
LINE
  5
354
330
A
100
AcDbEntity
  8
0
  6
DASHDOT
100
AcDbLine
 10
653.40476
 20
622.71927
 30
0.0
 11
653.40476
 21
603.75562
 31
0.0
  0
LINE
  5
355
330
A
100
AcDbEntity
  8
0
  6
DASHDOT
100
AcDbLine
 10
678.40476
 20
644.7087299999999
 30
0.0
 11
678.40476
 21
612.4993099999999
 31
0.0
  0
LINE
  5
356
330
A
100
AcDbEntity
  8
0
  6
DASHDOT
100
AcDbLine
 10
703.40476
 20
622.71927
 30
0.0
 11
703.40476
 21
603.75562
 31
0.0
  0
LINE
  5
357
330
A
100
AcDbEntity
  8
0
  6
DASHDOT
100
AcDbLine
 10
499.70087
 20
488.1993099999999
 30
0.0
 11
526.21038
 21
488.1993099999999
 31
0.0
  0
LINE
  5
358
330
A
100
AcDbEntity
  8
0
  6
DASHDOT
100
AcDbLine
 10
518.4047699999999
 20
501.43184
 30
0.0
 11
518.4047699999999
 21
524.52534
 31
0.0
  0
LINE
  5
359
330
A
100
AcDbEntity
  8
0
  6
DASHDOT
100
AcDbLine
 10
528.40477
 20
523.0201400000001
 30
0.0
 11
528.40477
 21
505.6269299999999
 31
0.0
  0
LINE
  5
35A
330
A
100
AcDbEntity
  8
0
  6
DASHDOT
100
AcDbLine
 10
658.4003299999999
 20
555.73329
 30
0.0
 11
658.4003299999999
 21
575.22951
 31
0.0
  0
LINE
  5
35B
330
A
100
AcDbEntity
  8
0
  6
DASHDOT
100
AcDbLine
 10
618.4003299999999
 20
555.73329
 30
0.0
 11
618.4003299999999
 21
575.22951
 31
0.0
  0
LINE
  5
35C
330
A
100
AcDbEntity
  8
0
  6
DASHDOT
100
AcDbLine
 10
633.4003299999999
 20
521.66532
 30
0.0
 11
633.4003299999999
 21
504.05267
 31
0.0
  0
LINE
  5
35D
330
A
100
AcDbEntity
  8
0
  6
DASHDOT
100
AcDbLine
 10
638.4003299999999
 20
576.55474
 30
0.0
 11
638.4003299999999
 21
498.64169
 31
0.0
  0
LINE
  5
35E
330
A
100
AcDbEntity
  8
0
  6
DASHDOT
100
AcDbLine
 10
613.4003299999999
 20
521.66532
 30
0.0
 11
613.4003299999999
 21
504.66911
 31
0.0
  0
LINE
  5
35F
330
A
100
AcDbEntity
  8
0
  6
DASHDOT
100
AcDbLine
 10
593.4003299999999
 20
521.66532
 30
0.0
 11
593.4003299999999
 21
504.66911
 31
0.0
  0
LINE
  5
360
330
A
100
AcDbEntity
  8
0
  6
Continuous
100
AcDbLine
 10
505.40477
 20
497.1993099999999
 30
0.0
 11
505.40477
 21
499.4493099999999
 31
0.0
  0
LINE
  5
361
330
A
100
AcDbEntity
  8
0
  6
Continuous
100
AcDbLine
 10
505.40477
 20
502.9493099999999
 30
0.0
 11
505.40477
 21
505.1993099999999
 31
0.0
  0
ARC
  5
362
330
A
100
AcDbEntity
  8
0
  6
Continuous
100
AcDbCircle
 10
684.1976499999999
 20
626.39931
 30
0.0
 40
0.5
100
AcDbArc
 50
270.0
 51
45.0
  0
LINE
  5
363
330
A
100
AcDbEntity
  8
0
  6
Continuous
100
AcDbLine
 10
683.4047599999999
 20
627.89931
 30
0.0
 11
684.5512099999999
 21
626.7528599999999
 31
0.0
  0
LINE
  5
364
330
A
100
AcDbEntity
  8
0
  6
Continuous
100
AcDbLine
 10
672.61187
 20
625.89931
 30
0.0
 11
684.1976499999999
 21
625.89931
 31
0.0
  0
ARC
  5
365
330
A
100
AcDbEntity
  8
0
  6
Continuous
100
AcDbCircle
 10
672.61187
 20
626.39931
 30
0.0
 40
0.5
100
AcDbArc
 50
135.0
 51
270.0
  0
LINE
  5
366
330
A
100
AcDbEntity
  8
0
  6
Continuous
100
AcDbLine
 10
673.40476
 20
627.89931
 30
0.0
 11
672.2583099999999
 21
626.7528599999999
 31
0.0
  0
ARC
  5
367
330
A
100
AcDbEntity
  8
0
  6
Continuous
100
AcDbCircle
 10
678.40476
 20
621.2493099999999
 30
0.0
 40
13.25
100
AcDbArc
 50
58.10920799999999
 51
121.89079
  0
ARC
  5
368
330
A
100
AcDbEntity
  8
0
  6
Continuous
100
AcDbCircle
 10
729.1881799999999
 20
649.2958599999999
 30
0.0
 40
13.903436
100
AcDbArc
 50
69.331024
 51
110.66896
  0
ARC
  5
369
330
A
100
AcDbEntity
  8
0
  6
Continuous
100
AcDbCircle
 10
736.5419099999999
 20
659.4850700000001
 30
0.0
 40
3.732671999999999
100
AcDbArc
 50
49.052734
 51
130.94725
  0
LINE
  5
36A
330
A
100
AcDbEntity
  8
0
  6
Continuous
100
AcDbLine
 10
737.43818
 20
663.1993099999999
 30
0.0
 11
729.1881799999999
 21
663.1993099999999
 31
0.0
  0
LINE
  5
36B
330
A
100
AcDbEntity
  8
0
  6
Continuous
100
AcDbLine
 10
738.98817
 20
662.3044099999999
 30
0.0
 11
737.43818
 21
663.1993099999999
 31
0.0
  0
LINE
  5
36C
330
A
100
AcDbEntity
  8
0
  6
Continuous
100
AcDbLine
 10
738.98817
 20
655.1993099999999
 30
0.0
 11
738.98817
 21
662.3044099999999
 31
0.0
  0
LINE
  5
36D
330
A
100
AcDbEntity
  8
0
  6
Continuous
100
AcDbLine
 10
734.0956499999999
 20
655.1993099999999
 30
0.0
 11
734.0956499999999
 21
662.3044099999999
 31
0.0
  0
ARC
  5
36E
330
A
100
AcDbEntity
  8
0
  6
Continuous
100
AcDbCircle
 10
721.8344499999999
 20
659.4850700000001
 30
0.0
 40
3.732671999999999
100
AcDbArc
 50
49.052734
 51
130.94725
  0
LINE
  5
36F
330
A
100
AcDbEntity
  8
0
  6
Continuous
100
AcDbLine
 10
720.93818
 20
663.1993099999999
 30
0.0
 11
729.1881799999999
 21
663.1993099999999
 31
0.0
  0
LINE
  5
370
330
A
100
AcDbEntity
  8
0
  6
Continuous
100
AcDbLine
 10
719.38819
 20
662.3044099999999
 30
0.0
 11
720.93818
 21
663.1993099999999
 31
0.0
  0
LINE
  5
371
330
A
100
AcDbEntity
  8
0
  6
Continuous
100
AcDbLine
 10
719.38819
 20
655.1993099999999
 30
0.0
 11
719.38819
 21
662.3044099999999
 31
0.0
  0
LINE
  5
372
330
A
100
AcDbEntity
  8
0
  6
Continuous
100
AcDbLine
 10
724.28071
 20
655.1993099999999
 30
0.0
 11
724.28071
 21
662.3044099999999
 31
0.0
  0
LINE
  5
373
330
A
100
AcDbEntity
  8
0
  6
Continuous
100
AcDbLine
 10
733.1881799999999
 20
632.93746
 30
0.0
 11
734.18818
 21
633.93746
 31
0.0
  0
LINE
  5
374
330
A
100
AcDbEntity
  8
0
  6
Continuous
100
AcDbLine
 10
734.18818
 20
644.89931
 30
0.0
 11
734.18818
 21
633.93746
 31
0.0
  0
LINE
  5
375
330
A
100
AcDbEntity
  8
0
  6
Continuous
100
AcDbLine
 10
725.1881799999999
 20
632.93746
 30
0.0
 11
733.1881799999999
 21
632.93746
 31
0.0
  0
LINE
  5
376
330
A
100
AcDbEntity
  8
0
  6
Continuous
100
AcDbLine
 10
724.1881799999999
 20
633.93746
 30
0.0
 11
725.1881799999999
 21
632.93746
 31
0.0
  0
LINE
  5
377
330
A
100
AcDbEntity
  8
0
  6
Continuous
100
AcDbLine
 10
724.1881799999999
 20
644.89931
 30
0.0
 11
724.1881799999999
 21
633.93746
 31
0.0
  0
ARC
  5
378
330
A
100
AcDbEntity
  8
0
  6
Continuous
100
AcDbCircle
 10
729.1881799999999
 20
658.8027499999999
 30
0.0
 40
13.903436
100
AcDbArc
 50
249.33103
 51
290.66897
  0
ARC
  5
379
330
A
100
AcDbEntity
  8
0
  6
Continuous
100
AcDbCircle
 10
736.5419099999999
 20
648.6135400000001
 30
0.0
 40
3.732671999999999
100
AcDbArc
 50
229.05275
 51
310.94726
  0
LINE
  5
37A
330
A
100
AcDbEntity
  8
0
  6
Continuous
100
AcDbLine
 10
737.43818
 20
644.89931
 30
0.0
 11
729.1881799999999
 21
644.89931
 31
0.0
  0
LINE
  5
37B
330
A
100
AcDbEntity
  8
0
  6
Continuous
100
AcDbLine
 10
738.98817
 20
645.7942
 30
0.0
 11
737.43818
 21
644.89931
 31
0.0
  0
LINE
  5
37C
330
A
100
AcDbEntity
  8
0
  6
Continuous
100
AcDbLine
 10
738.98817
 20
652.89931
 30
0.0
 11
738.98817
 21
645.7942
 31
0.0
  0
LINE
  5
37D
330
A
100
AcDbEntity
  8
0
  6
Continuous
100
AcDbLine
 10
734.0956499999999
 20
652.89931
 30
0.0
 11
734.0956499999999
 21
645.7942
 31
0.0
  0
ARC
  5
37E
330
A
100
AcDbEntity
  8
0
  6
Continuous
100
AcDbCircle
 10
721.8344499999999
 20
648.6135400000001
 30
0.0
 40
3.732671999999999
100
AcDbArc
 50
229.05275
 51
310.94726
  0
LINE
  5
37F
330
A
100
AcDbEntity
  8
0
  6
Continuous
100
AcDbLine
 10
720.93818
 20
644.89931
 30
0.0
 11
729.1881799999999
 21
644.89931
 31
0.0
  0
LINE
  5
380
330
A
100
AcDbEntity
  8
0
  6
Continuous
100
AcDbLine
 10
719.38819
 20
645.7942
 30
0.0
 11
720.93818
 21
644.89931
 31
0.0
  0
LINE
  5
381
330
A
100
AcDbEntity
  8
0
  6
Continuous
100
AcDbLine
 10
719.38819
 20
652.89931
 30
0.0
 11
719.38819
 21
645.7942
 31
0.0
  0
LINE
  5
382
330
A
100
AcDbEntity
  8
0
  6
Continuous
100
AcDbLine
 10
724.28071
 20
652.89931
 30
0.0
 11
724.28071
 21
645.7942
 31
0.0
  0
LINE
  5
383
330
A
100
AcDbEntity
  8
0
  6
Continuous
100
AcDbLine
 10
690.90476
 20
630.1993099999999
 30
0.0
 11
690.90476
 21
616.4993099999999
 31
0.0
  0
LINE
  5
384
330
A
100
AcDbEntity
  8
0
  6
Continuous
100
AcDbLine
 10
665.90476
 20
630.1993099999999
 30
0.0
 11
700.90476
 21
630.1993099999999
 31
0.0
  0
LINE
  5
385
330
A
100
AcDbEntity
  8
0
  6
Continuous
100
AcDbLine
 10
688.6047599999999
 20
614.1993099999999
 30
0.0
 11
688.6047599999999
 21
627.89931
 31
0.0
  0
LINE
  5
386
330
A
100
AcDbEntity
  8
0
  6
Continuous
100
AcDbLine
 10
668.2047599999999
 20
614.1993099999999
 30
0.0
 11
668.2047599999999
 21
627.89931
 31
0.0
  0
LINE
  5
387
330
A
100
AcDbEntity
  8
0
  6
Continuous
100
AcDbLine
 10
665.90476
 20
630.1993099999999
 30
0.0
 11
665.90476
 21
616.4993099999999
 31
0.0
  0
LINE
  5
388
330
A
100
AcDbEntity
  8
0
  6
Continuous
100
AcDbLine
 10
668.2047599999999
 20
627.89931
 30
0.0
 11
688.6047599999999
 21
627.89931
 31
0.0
  0
LINE
  5
389
330
A
100
AcDbEntity
  8
0
  6
Continuous
100
AcDbLine
 10
690.90476
 20
616.4993099999999
 30
0.0
 11
713.40476
 21
616.4993099999999
 31
0.0
  0
LINE
  5
38A
330
A
100
AcDbEntity
  8
0
  6
Continuous
100
AcDbLine
 10
713.40476
 20
616.4993099999999
 30
0.0
 11
713.40476
 21
614.1993099999999
 31
0.0
  0
LINE
  5
38B
330
A
100
AcDbEntity
  8
0
  6
Continuous
100
AcDbLine
 10
665.90476
 20
616.4993099999999
 30
0.0
 11
643.40476
 21
616.4993099999999
 31
0.0
  0
LINE
  5
38C
330
A
100
AcDbEntity
  8
0
  6
Continuous
100
AcDbLine
 10
643.40476
 20
616.4993099999999
 30
0.0
 11
643.40476
 21
614.1993099999999
 31
0.0
  0
LINE
  5
38D
330
A
100
AcDbEntity
  8
0
  6
Continuous
100
AcDbLine
 10
608.4003299999999
 20
517.39931
 30
0.0
 11
583.4003299999999
 21
517.39931
 31
0.0
  0
LINE
  5
38E
330
A
100
AcDbEntity
  8
0
  6
Continuous
100
AcDbLine
 10
583.4003299999999
 20
503.73755
 30
0.0
 11
583.4003299999999
 21
517.39931
 31
0.0
  0
ARC
  5
38F
330
A
100
AcDbEntity
  8
0
  6
Continuous
100
AcDbCircle
 10
598.4003299999999
 20
519.6821899999999
 30
0.0
 40
10.0
100
AcDbArc
 50
302.52913
 51
0.0
  0
LINE
  5
390
330
A
100
AcDbEntity
  8
0
  6
Continuous
100
AcDbLine
 10
608.4003299999999
 20
519.6821899999999
 30
0.0
 11
608.4003299999999
 21
564.1993099999999
 31
0.0
  0
LINE
  5
391
330
A
100
AcDbEntity
  8
0
  6
Continuous
100
AcDbLine
 10
603.77762
 20
511.2510099999999
 30
0.0
 11
564.0985099999999
 21
485.94425
 31
0.0
  0
ARC
  5
392
330
A
100
AcDbEntity
  8
0
  6
Continuous
100
AcDbCircle
 10
573.4003299999999
 20
503.73755
 30
0.0
 40
10.0
100
AcDbArc
 50
302.52913
 51
0.0
  0
ARC
  5
393
330
A
100
AcDbEntity
  8
0
  6
Continuous
100
AcDbCircle
 10
658.4003299999999
 20
506.76097
 30
0.0
 40
10.0
100
AcDbArc
 50
285.80929
 51
0.0
  0
LINE
  5
394
330
A
100
AcDbEntity
  8
0
  6
Continuous
100
AcDbLine
 10
661.12469
 20
497.1392299999999
 30
0.0
 11
570.68904
 21
471.5326799999999
 31
0.0
  0
LINE
  5
395
330
A
100
AcDbEntity
  8
0
  6
Continuous
100
AcDbLine
 10
668.4003299999999
 20
506.76097
 30
0.0
 11
668.4003299999999
 21
564.1993099999999
 31
0.0
  0
ARC
  5
396
330
A
100
AcDbEntity
  8
0
  6
Continuous
100
AcDbCircle
 10
568.4003299999999
 20
479.19931
 30
0.0
 40
8.0
100
AcDbArc
 50
122.52913
 51
286.62185
  0
CIRCLE
  5
397
330
A
100
AcDbEntity
  8
0
  6
Continuous
100
AcDbCircle
 10
568.4003299999999
 20
479.19931
 30
0.0
 40
4.0
  0
LINE
  5
398
330
A
100
AcDbEntity
  8
0
  6
Continuous
100
AcDbLine
 10
578.40476
 20
617.39931
 30
0.0
 11
578.40476
 21
614.1993099999999
 31
0.0
  0
LINE
  5
399
330
A
100
AcDbEntity
  8
0
  6
Continuous
100
AcDbLine
 10
528.40477
 20
617.39931
 30
0.0
 11
578.40476
 21
617.39931
 31
0.0
  0
LINE
  5
39A
330
A
100
AcDbEntity
  8
0
  6
Continuous
100
AcDbLine
 10
508.40477
 20
617.39931
 30
0.0
 11
508.40477
 21
614.1993099999999
 31
0.0
  0
LINE
  5
39B
330
A
100
AcDbEntity
  8
0
  6
Continuous
100
AcDbLine
 10
528.40477
 20
617.39931
 30
0.0
 11
508.40477
 21
617.39931
 31
0.0
  0
LINE
  5
39C
330
A
100
AcDbEntity
  8
0
  6
Continuous
100
AcDbLine
 10
503.40477
 20
564.1993099999999
 30
0.0
 11
521.9047699999999
 21
564.1993099999999
 31
0.0
  0
LINE
  5
39D
330
A
100
AcDbEntity
  8
0
  6
Continuous
100
AcDbLine
 10
521.9047699999999
 20
564.1993099999999
 30
0.0
 11
533.40477
 21
564.1993099999999
 31
0.0
  0
LINE
  5
39E
330
A
100
AcDbEntity
  8
0
  6
Continuous
100
AcDbLine
 10
514.9047699999999
 20
614.1993099999999
 30
0.0
 11
503.40477
 21
614.1993099999999
 31
0.0
  0
LINE
  5
39F
330
A
100
AcDbEntity
  8
0
  6
Continuous
100
AcDbLine
 10
533.40477
 20
614.1993099999999
 30
0.0
 11
521.9047699999999
 21
614.1993099999999
 31
0.0
  0
LINE
  5
3A0
330
A
100
AcDbEntity
  8
0
  6
Continuous
100
AcDbLine
 10
531.4047699999999
 20
603.69931
 30
0.0
 11
531.4047699999999
 21
574.69931
 31
0.0
  0
LINE
  5
3A1
330
A
100
AcDbEntity
  8
0
  6
Continuous
100
AcDbLine
 10
528.90477
 20
574.69931
 30
0.0
 11
531.4047699999999
 21
574.69931
 31
0.0
  0
LINE
  5
3A2
330
A
100
AcDbEntity
  8
0
  6
Continuous
100
AcDbLine
 10
505.40477
 20
603.69931
 30
0.0
 11
505.40477
 21
574.69931
 31
0.0
  0
LINE
  5
3A3
330
A
100
AcDbEntity
  8
0
  6
Continuous
100
AcDbLine
 10
507.90477
 20
574.69931
 30
0.0
 11
505.40477
 21
574.69931
 31
0.0
  0
LINE
  5
3A4
330
A
100
AcDbEntity
  8
0
  6
Continuous
100
AcDbLine
 10
509.90477
 20
574.69931
 30
0.0
 11
526.9047699999999
 21
574.69931
 31
0.0
  0
LINE
  5
3A5
330
A
100
AcDbEntity
  8
0
  6
Continuous
100
AcDbLine
 10
528.90477
 20
572.6993099999999
 30
0.0
 11
507.90477
 21
572.6993099999999
 31
0.0
  0
LINE
  5
3A6
330
A
100
AcDbEntity
  8
0
  6
Continuous
100
AcDbLine
 10
507.90477
 20
572.6993099999999
 30
0.0
 11
507.90477
 21
567.6993099999999
 31
0.0
  0
LINE
  5
3A7
330
A
100
AcDbEntity
  8
0
  6
Continuous
100
AcDbLine
 10
514.9047699999999
 20
567.6993099999999
 30
0.0
 11
514.9047699999999
 21
564.1993099999999
 31
0.0
  0
LINE
  5
3A8
330
A
100
AcDbEntity
  8
0
  6
Continuous
100
AcDbLine
 10
507.90477
 20
567.6993099999999
 30
0.0
 11
514.9047699999999
 21
567.6993099999999
 31
0.0
  0
LINE
  5
3A9
330
A
100
AcDbEntity
  8
0
  6
Continuous
100
AcDbLine
 10
507.90477
 20
578.19931
 30
0.0
 11
507.90477
 21
574.69931
 31
0.0
  0
LINE
  5
3AA
330
A
100
AcDbEntity
  8
0
  6
Continuous
100
AcDbLine
 10
509.90477
 20
578.19931
 30
0.0
 11
507.90477
 21
578.19931
 31
0.0
  0
LINE
  5
3AB
330
A
100
AcDbEntity
  8
0
  6
Continuous
100
AcDbLine
 10
509.90477
 20
574.69931
 30
0.0
 11
509.90477
 21
578.19931
 31
0.0
  0
LINE
  5
3AC
330
A
100
AcDbEntity
  8
0
  6
Continuous
100
AcDbLine
 10
528.90477
 20
572.6993099999999
 30
0.0
 11
528.90477
 21
567.6993099999999
 31
0.0
  0
LINE
  5
3AD
330
A
100
AcDbEntity
  8
0
  6
Continuous
100
AcDbLine
 10
521.9047699999999
 20
567.6993099999999
 30
0.0
 11
521.9047699999999
 21
564.1993099999999
 31
0.0
  0
LINE
  5
3AE
330
A
100
AcDbEntity
  8
0
  6
Continuous
100
AcDbLine
 10
528.90477
 20
567.6993099999999
 30
0.0
 11
521.9047699999999
 21
567.6993099999999
 31
0.0
  0
LINE
  5
3AF
330
A
100
AcDbEntity
  8
0
  6
Continuous
100
AcDbLine
 10
528.90477
 20
578.19931
 30
0.0
 11
528.90477
 21
574.69931
 31
0.0
  0
LINE
  5
3B0
330
A
100
AcDbEntity
  8
0
  6
Continuous
100
AcDbLine
 10
526.9047699999999
 20
578.19931
 30
0.0
 11
528.90477
 21
578.19931
 31
0.0
  0
LINE
  5
3B1
330
A
100
AcDbEntity
  8
0
  6
Continuous
100
AcDbLine
 10
526.9047699999999
 20
574.69931
 30
0.0
 11
526.9047699999999
 21
578.19931
 31
0.0
  0
LINE
  5
3B2
330
A
100
AcDbEntity
  8
0
  6
Continuous
100
AcDbLine
 10
509.90477
 20
603.69931
 30
0.0
 11
526.9047699999999
 21
603.69931
 31
0.0
  0
LINE
  5
3B3
330
A
100
AcDbEntity
  8
0
  6
Continuous
100
AcDbLine
 10
528.90477
 20
605.6993099999999
 30
0.0
 11
507.90477
 21
605.6993099999999
 31
0.0
  0
LINE
  5
3B4
330
A
100
AcDbEntity
  8
0
  6
Continuous
100
AcDbLine
 10
507.90477
 20
605.6993099999999
 30
0.0
 11
507.90477
 21
610.6993099999999
 31
0.0
  0
LINE
  5
3B5
330
A
100
AcDbEntity
  8
0
  6
Continuous
100
AcDbLine
 10
514.9047699999999
 20
610.6993099999999
 30
0.0
 11
514.9047699999999
 21
614.1993099999999
 31
0.0
  0
LINE
  5
3B6
330
A
100
AcDbEntity
  8
0
  6
Continuous
100
AcDbLine
 10
507.90477
 20
610.6993099999999
 30
0.0
 11
514.9047699999999
 21
610.6993099999999
 31
0.0
  0
LINE
  5
3B7
330
A
100
AcDbEntity
  8
0
  6
Continuous
100
AcDbLine
 10
507.90477
 20
603.69931
 30
0.0
 11
505.40477
 21
603.69931
 31
0.0
  0
LINE
  5
3B8
330
A
100
AcDbEntity
  8
0
  6
Continuous
100
AcDbLine
 10
507.90477
 20
600.1993099999999
 30
0.0
 11
507.90477
 21
603.69931
 31
0.0
  0
LINE
  5
3B9
330
A
100
AcDbEntity
  8
0
  6
Continuous
100
AcDbLine
 10
509.90477
 20
600.1993099999999
 30
0.0
 11
507.90477
 21
600.1993099999999
 31
0.0
  0
LINE
  5
3BA
330
A
100
AcDbEntity
  8
0
  6
Continuous
100
AcDbLine
 10
509.90477
 20
603.69931
 30
0.0
 11
509.90477
 21
600.1993099999999
 31
0.0
  0
LINE
  5
3BB
330
A
100
AcDbEntity
  8
0
  6
Continuous
100
AcDbLine
 10
528.90477
 20
605.6993099999999
 30
0.0
 11
528.90477
 21
610.6993099999999
 31
0.0
  0
LINE
  5
3BC
330
A
100
AcDbEntity
  8
0
  6
Continuous
100
AcDbLine
 10
521.9047699999999
 20
610.6993099999999
 30
0.0
 11
521.9047699999999
 21
614.1993099999999
 31
0.0
  0
LINE
  5
3BD
330
A
100
AcDbEntity
  8
0
  6
Continuous
100
AcDbLine
 10
528.90477
 20
603.69931
 30
0.0
 11
531.4047699999999
 21
603.69931
 31
0.0
  0
LINE
  5
3BE
330
A
100
AcDbEntity
  8
0
  6
Continuous
100
AcDbLine
 10
528.90477
 20
600.1993099999999
 30
0.0
 11
528.90477
 21
603.69931
 31
0.0
  0
LINE
  5
3BF
330
A
100
AcDbEntity
  8
0
  6
Continuous
100
AcDbLine
 10
526.9047699999999
 20
600.1993099999999
 30
0.0
 11
528.90477
 21
600.1993099999999
 31
0.0
  0
LINE
  5
3C0
330
A
100
AcDbEntity
  8
0
  6
Continuous
100
AcDbLine
 10
526.9047699999999
 20
603.69931
 30
0.0
 11
526.9047699999999
 21
600.1993099999999
 31
0.0
  0
LINE
  5
3C1
330
A
100
AcDbEntity
  8
0
  6
Continuous
100
AcDbLine
 10
533.40477
 20
564.1993099999999
 30
0.0
 11
533.40477
 21
614.1993099999999
 31
0.0
  0
LINE
  5
3C2
330
A
100
AcDbEntity
  8
0
  6
Continuous
100
AcDbLine
 10
503.40477
 20
614.1993099999999
 30
0.0
 11
503.40477
 21
564.1993099999999
 31
0.0
  0
LINE
  5
3C3
330
A
100
AcDbEntity
  8
0
  6
Continuous
100
AcDbLine
 10
578.40476
 20
517.39931
 30
0.0
 11
578.40476
 21
514.1993099999999
 31
0.0
  0
LINE
  5
3C4
330
A
100
AcDbEntity
  8
0
  6
Continuous
100
AcDbLine
 10
528.40477
 20
517.39931
 30
0.0
 11
578.40476
 21
517.39931
 31
0.0
  0
LINE
  5
3C5
330
A
100
AcDbEntity
  8
0
  6
Continuous
100
AcDbLine
 10
508.40477
 20
517.39931
 30
0.0
 11
508.40477
 21
514.1993099999999
 31
0.0
  0
LINE
  5
3C6
330
A
100
AcDbEntity
  8
0
  6
Continuous
100
AcDbLine
 10
528.40477
 20
517.39931
 30
0.0
 11
508.40477
 21
517.39931
 31
0.0
  0
LINE
  5
3C7
330
A
100
AcDbEntity
  8
0
  6
Continuous
100
AcDbLine
 10
700.90476
 20
652.89931
 30
0.0
 11
700.90476
 21
630.1993099999999
 31
0.0
  0
LINE
  5
3C8
330
A
100
AcDbEntity
  8
0
  6
Continuous
100
AcDbLine
 10
698.6047599999999
 20
632.4993099999999
 30
0.0
 11
698.6047599999999
 21
655.1993099999999
 31
0.0
  0
LINE
  5
3C9
330
A
100
AcDbEntity
  8
0
  6
Continuous
100
AcDbLine
 10
665.90476
 20
632.4993099999999
 30
0.0
 11
698.6047599999999
 21
632.4993099999999
 31
0.0
  0
LINE
  5
3CA
330
A
100
AcDbEntity
  8
0
  6
Continuous
100
AcDbLine
 10
665.90476
 20
630.1993099999999
 30
0.0
 11
665.90476
 21
632.4993099999999
 31
0.0
  0
LINE
  5
3CB
330
A
100
AcDbEntity
  8
0
  6
Continuous
100
AcDbLine
 10
716.6047599999999
 20
655.1993099999999
 30
0.0
 11
716.6047599999999
 21
652.89931
 31
0.0
  0
LINE
  5
3CC
330
A
100
AcDbEntity
  8
0
  6
Continuous
100
AcDbLine
 10
743.6047599999999
 20
652.89931
 30
0.0
 11
700.90476
 21
652.89931
 31
0.0
  0
LINE
  5
3CD
330
A
100
AcDbEntity
  8
0
  6
Continuous
100
AcDbLine
 10
743.6047599999999
 20
655.1993099999999
 30
0.0
 11
743.6047599999999
 21
652.89931
 31
0.0
  0
LINE
  5
3CE
330
A
100
AcDbEntity
  8
0
  6
Continuous
100
AcDbLine
 10
698.6047599999999
 20
655.1993099999999
 30
0.0
 11
743.6047599999999
 21
655.1993099999999
 31
0.0
  0
LINE
  5
3CF
330
A
100
AcDbEntity
  8
0
  6
Continuous
100
AcDbLine
 10
508.40477
 20
610.6993099999999
 30
0.0
 11
528.90477
 21
610.6993099999999
 31
0.0
  0
LINE
  5
3D0
330
A
100
AcDbEntity
  8
0
  6
Continuous
100
AcDbLine
 10
508.40477
 20
610.6993099999999
 30
0.0
 11
508.40477
 21
607.4993099999999
 31
0.0
  0
LINE
  5
3D1
330
A
100
AcDbEntity
  8
0
  6
Continuous
100
AcDbLine
 10
528.40477
 20
607.4993099999999
 30
0.0
 11
508.40477
 21
607.4993099999999
 31
0.0
  0
ARC
  5
3D2
330
A
100
AcDbEntity
  8
0
  6
Continuous
100
AcDbCircle
 10
506.90477
 20
458.2008799999999
 30
0.0
 40
2.0
100
AcDbArc
 50
270.0
 51
0.0
  0
LINE
  5
3D3
330
A
100
AcDbEntity
  8
0
  6
Continuous
100
AcDbLine
 10
508.90477
 20
474.2008799999999
 30
0.0
 11
508.90477
 21
458.2008799999999
 31
0.0
  0
LINE
  5
3D4
330
A
100
AcDbEntity
  8
0
  6
Continuous
100
AcDbLine
 10
506.90477
 20
458.2008799999999
 30
0.0
 11
503.40477
 21
458.2008799999999
 31
0.0
  0
LINE
  5
3D5
330
A
100
AcDbEntity
  8
0
  6
Continuous
100
AcDbLine
 10
506.90477
 20
473.20088
 30
0.0
 11
506.90477
 21
458.2008799999999
 31
0.0
  0
LINE
  5
3D6
330
A
100
AcDbEntity
  8
0
  6
Continuous
100
AcDbLine
 10
507.90477
 20
507.1993099999999
 30
0.0
 11
528.90477
 21
507.1993099999999
 31
0.0
  0
LINE
  5
3D7
330
A
100
AcDbEntity
  8
0
  6
Continuous
100
AcDbLine
 10
515.15477
 20
512.19931
 30
0.0
 11
528.90477
 21
512.19931
 31
0.0
  0
LINE
  5
3D8
330
A
100
AcDbEntity
  8
0
  6
Continuous
100
AcDbLine
 10
528.90477
 20
512.19931
 30
0.0
 11
528.90477
 21
507.1993099999999
 31
0.0
  0
LINE
  5
3D9
330
A
100
AcDbEntity
  8
0
  6
Continuous
100
AcDbLine
 10
507.90477
 20
512.19931
 30
0.0
 11
515.15477
 21
512.19931
 31
0.0
  0
LINE
  5
3DA
330
A
100
AcDbEntity
  8
0
  6
Continuous
100
AcDbLine
 10
507.90477
 20
507.1993099999999
 30
0.0
 11
507.90477
 21
512.19931
 31
0.0
  0
LINE
  5
3DB
330
A
100
AcDbEntity
  8
0
  6
Continuous
100
AcDbLine
 10
508.40477
 20
512.19931
 30
0.0
 11
508.40477
 21
508.99931
 31
0.0
  0
LINE
  5
3DC
330
A
100
AcDbEntity
  8
0
  6
Continuous
100
AcDbLine
 10
528.40477
 20
508.99931
 30
0.0
 11
508.40477
 21
508.99931
 31
0.0
  0
ARC
  5
3DD
330
A
100
AcDbEntity
  8
0
  6
Continuous
100
AcDbCircle
 10
506.90477
 20
449.0024799999999
 30
0.0
 40
0.5
100
AcDbArc
 50
180.0
 51
322.8
  0
LINE
  5
3DE
330
A
100
AcDbEntity
  8
0
  6
Continuous
100
AcDbLine
 10
522.67291
 20
468.94924
 30
0.0
 11
507.30304
 21
448.7001799999999
 31
0.0
  0
LINE
  5
3DF
330
A
100
AcDbEntity
  8
0
  6
Continuous
100
AcDbLine
 10
506.40477
 20
449.0024799999999
 30
0.0
 11
506.40477
 21
456.20088
 31
0.0
  0
ARC
  5
3E0
330
A
100
AcDbEntity
  8
0
  6
Continuous
100
AcDbCircle
 10
517.40477
 20
482.1993099999999
 30
0.0
 40
1.0
100
AcDbArc
 50
270.0
 51
0.0
  0
LINE
  5
3E1
330
A
100
AcDbEntity
  8
0
  6
Continuous
100
AcDbLine
 10
503.40477
 20
481.1993099999999
 30
0.0
 11
517.40477
 21
481.1993099999999
 31
0.0
  0
ARC
  5
3E2
330
A
100
AcDbEntity
  8
0
  6
Continuous
100
AcDbCircle
 10
517.40477
 20
494.1993099999999
 30
0.0
 40
1.0
100
AcDbArc
 50
0.0
 51
90.0
  0
LINE
  5
3E3
330
A
100
AcDbEntity
  8
0
  6
Continuous
100
AcDbLine
 10
503.40477
 20
495.19931
 30
0.0
 11
517.40477
 21
495.19931
 31
0.0
  0
ARC
  5
3E4
330
A
100
AcDbEntity
  8
0
  6
Continuous
100
AcDbCircle
 10
521.40477
 20
496.1993099999999
 30
0.0
 40
2.0
100
AcDbArc
 50
0.0
 51
90.0
  0
LINE
  5
3E5
330
A
100
AcDbEntity
  8
0
  6
Continuous
100
AcDbLine
 10
523.4047699999999
 20
496.1993099999999
 30
0.0
 11
523.4047699999999
 21
484.1993099999999
 31
0.0
  0
LINE
  5
3E6
330
A
100
AcDbEntity
  8
0
  6
Continuous
100
AcDbLine
 10
512.40477
 20
498.1993099999999
 30
0.0
 11
521.40477
 21
498.1993099999999
 31
0.0
  0
ARC
  5
3E7
330
A
100
AcDbEntity
  8
0
  6
Continuous
100
AcDbCircle
 10
526.5416899999999
 20
484.1993099999999
 30
0.0
 40
3.0
100
AcDbArc
 50
270.0
 51
347.24951
  0
ARC
  5
3E8
330
A
100
AcDbEntity
  8
0
  6
Continuous
100
AcDbCircle
 10
492.40477
 20
491.924
 30
0.0
 40
38.0
100
AcDbArc
 50
347.24951
 51
0.0
  0
LINE
  5
3E9
330
A
100
AcDbEntity
  8
0
  6
Continuous
100
AcDbLine
 10
526.5416899999999
 20
481.1993099999999
 30
0.0
 11
526.4047699999999
 21
481.1993099999999
 31
0.0
  0
ARC
  5
3EA
330
A
100
AcDbEntity
  8
0
  6
Continuous
100
AcDbCircle
 10
526.4047699999999
 20
484.1993099999999
 30
0.0
 40
3.0
100
AcDbArc
 50
180.0
 51
270.0
  0
ARC
  5
3EB
330
A
100
AcDbEntity
  8
0
  6
Continuous
100
AcDbCircle
 10
523.15025
 20
475.1993099999999
 30
0.0
 40
3.0
100
AcDbArc
 50
331.45502
 51
90.0
  0
ARC
  5
3EC
330
A
100
AcDbEntity
  8
0
  6
Continuous
100
AcDbCircle
 10
492.40477
 20
491.924
 30
0.0
 40
38.0
100
AcDbArc
 50
322.8
 51
331.45502
  0
LINE
  5
3ED
330
A
100
AcDbEntity
  8
0
  6
Continuous
100
AcDbLine
 10
523.15025
 20
478.19931
 30
0.0
 11
506.40477
 21
478.19931
 31
0.0
  0
LINE
  5
3EE
330
A
100
AcDbEntity
  8
0
  6
Continuous
100
AcDbLine
 10
530.4047699999999
 20
505.1993099999999
 30
0.0
 11
530.4047699999999
 21
491.924
 31
0.0
  0
ARC
  5
3EF
330
A
100
AcDbEntity
  8
0
  6
Continuous
100
AcDbCircle
 10
493.40477
 20
493.24145
 30
0.0
 40
40.0
100
AcDbArc
 50
322.8
 51
0.0
  0
LINE
  5
3F0
330
A
100
AcDbEntity
  8
0
  6
Continuous
100
AcDbLine
 10
506.9978299999999
 20
444.9901099999999
 30
0.0
 11
525.26597
 21
469.05749
 31
0.0
  0
LINE
  5
3F1
330
A
100
AcDbEntity
  8
0
  6
Continuous
100
AcDbLine
 10
533.40477
 20
514.1993099999999
 30
0.0
 11
533.40477
 21
493.24145
 31
0.0
  0
ARC
  5
3F2
330
A
100
AcDbEntity
  8
0
  6
Continuous
100
AcDbCircle
 10
505.40477
 20
446.1993099999999
 30
0.0
 40
2.0
100
AcDbArc
 50
180.0
 51
322.8
  0
LINE
  5
3F3
330
A
100
AcDbEntity
  8
0
  6
Continuous
100
AcDbLine
 10
506.40477
 20
456.20088
 30
0.0
 11
506.90477
 21
456.20088
 31
0.0
  0
LINE
  5
3F4
330
A
100
AcDbEntity
  8
0
  6
Continuous
100
AcDbLine
 10
512.40477
 20
505.1993099999999
 30
0.0
 11
530.4047699999999
 21
505.1993099999999
 31
0.0
  0
ARC
  5
3F5
330
A
100
AcDbEntity
  8
0
  6
Continuous
100
AcDbCircle
 10
507.90477
 20
474.2008799999999
 30
0.0
 40
1.0
100
AcDbArc
 50
0.0
 51
90.0
  0
LINE
  5
3F6
330
A
100
AcDbEntity
  8
0
  6
Continuous
100
AcDbLine
 10
507.90477
 20
475.2008799999999
 30
0.0
 11
506.40477
 21
475.2008799999999
 31
0.0
  0
ARC
  5
3F7
330
A
100
AcDbEntity
  8
0
  6
Continuous
100
AcDbCircle
 10
506.40477
 20
476.20088
 30
0.0
 40
1.0
100
AcDbArc
 50
180.0
 51
270.0
  0
LINE
  5
3F8
330
A
100
AcDbEntity
  8
0
  6
Continuous
100
AcDbLine
 10
505.40477
 20
476.20088
 30
0.0
 11
505.40477
 21
477.1993099999999
 31
0.0
  0
ARC
  5
3F9
330
A
100
AcDbEntity
  8
0
  6
Continuous
100
AcDbCircle
 10
506.40477
 20
477.1993099999999
 30
0.0
 40
1.0
100
AcDbArc
 50
90.0
 51
180.0
  0
LINE
  5
3FA
330
A
100
AcDbEntity
  8
0
  6
Continuous
100
AcDbLine
 10
512.40477
 20
505.1993099999999
 30
0.0
 11
512.40477
 21
498.1993099999999
 31
0.0
  0
LINE
  5
3FB
330
A
100
AcDbEntity
  8
0
  6
Continuous
100
AcDbLine
 10
505.40477
 20
505.1993099999999
 30
0.0
 11
510.40477
 21
505.1993099999999
 31
0.0
  0
LINE
  5
3FC
330
A
100
AcDbEntity
  8
0
  6
Continuous
100
AcDbLine
 10
503.40477
 20
503.19931
 30
0.0
 11
505.40477
 21
503.19931
 31
0.0
  0
LINE
  5
3FD
330
A
100
AcDbEntity
  8
0
  6
Continuous
100
AcDbLine
 10
510.40477
 20
497.1993099999999
 30
0.0
 11
510.40477
 21
505.1993099999999
 31
0.0
  0
LINE
  5
3FE
330
A
100
AcDbEntity
  8
0
  6
Continuous
100
AcDbLine
 10
505.40477
 20
497.1993099999999
 30
0.0
 11
510.40477
 21
497.1993099999999
 31
0.0
  0
LINE
  5
3FF
330
A
100
AcDbEntity
  8
0
  6
Continuous
100
AcDbLine
 10
503.40477
 20
499.19931
 30
0.0
 11
503.40477
 21
495.19931
 31
0.0
  0
LINE
  5
400
330
A
100
AcDbEntity
  8
0
  6
Continuous
100
AcDbLine
 10
505.40477
 20
499.19931
 30
0.0
 11
503.40477
 21
499.19931
 31
0.0
  0
LINE
  5
401
330
A
100
AcDbEntity
  8
0
  6
Continuous
100
AcDbLine
 10
503.40477
 20
514.1993099999999
 30
0.0
 11
503.40477
 21
503.19931
 31
0.0
  0
LINE
  5
402
330
A
100
AcDbEntity
  8
0
  6
Continuous
100
AcDbLine
 10
503.40477
 20
481.1993099999999
 30
0.0
 11
503.40477
 21
473.20088
 31
0.0
  0
LINE
  5
403
330
A
100
AcDbEntity
  8
0
  6
Continuous
100
AcDbLine
 10
533.40477
 20
514.1993099999999
 30
0.0
 11
521.6547699999999
 21
514.1993099999999
 31
0.0
  0
LINE
  5
404
330
A
100
AcDbEntity
  8
0
  6
Continuous
100
AcDbLine
 10
521.6547699999999
 20
514.1993099999999
 30
0.0
 11
521.6547699999999
 21
512.19931
 31
0.0
  0
LINE
  5
405
330
A
100
AcDbEntity
  8
0
  6
Continuous
100
AcDbLine
 10
515.15477
 20
514.1993099999999
 30
0.0
 11
503.40477
 21
514.1993099999999
 31
0.0
  0
LINE
  5
406
330
A
100
AcDbEntity
  8
0
  6
Continuous
100
AcDbLine
 10
515.15477
 20
514.1993099999999
 30
0.0
 11
515.15477
 21
512.19931
 31
0.0
  0
LINE
  5
407
330
A
100
AcDbEntity
  8
0
  6
Continuous
100
AcDbLine
 10
506.90477
 20
473.20088
 30
0.0
 11
503.40477
 21
473.20088
 31
0.0
  0
LINE
  5
408
330
A
100
AcDbEntity
  8
0
  6
Continuous
100
AcDbLine
 10
503.40477
 20
458.2008799999999
 30
0.0
 11
503.40477
 21
446.1993099999999
 31
0.0
  0
LINE
  5
409
330
A
100
AcDbEntity
  8
0
  6
Continuous
100
AcDbLine
 10
533.40477
 20
514.1993099999999
 30
0.0
 11
583.4003299999999
 21
514.1993099999999
 31
0.0
  0
LINE
  5
40A
330
A
100
AcDbEntity
  8
0
  6
Continuous
100
AcDbLine
 10
530.9047699999999
 20
514.1993099999999
 30
0.0
 11
505.90477
 21
514.1993099999999
 31
0.0
  0
LINE
  5
40B
330
A
100
AcDbEntity
  8
0
  6
Continuous
100
AcDbLine
 10
1603.40476
 20
458.2008799999999
 30
0.0
 11
1603.40476
 21
446.1993099999999
 31
0.0
  0
LINE
  5
40C
330
A
100
AcDbEntity
  8
0
  6
Continuous
100
AcDbLine
 10
1599.90476
 20
473.20088
 30
0.0
 11
1603.40476
 21
473.20088
 31
0.0
  0
LINE
  5
40D
330
A
100
AcDbEntity
  8
0
  6
Continuous
100
AcDbLine
 10
1591.65476
 20
514.1993099999999
 30
0.0
 11
1591.65476
 21
512.19931
 31
0.0
  0
LINE
  5
40E
330
A
100
AcDbEntity
  8
0
  6
Continuous
100
AcDbLine
 10
1585.15476
 20
514.1993099999999
 30
0.0
 11
1585.15476
 21
512.19931
 31
0.0
  0
LINE
  5
40F
330
A
100
AcDbEntity
  8
0
  6
Continuous
100
AcDbLine
 10
1603.40476
 20
481.1993099999999
 30
0.0
 11
1603.40476
 21
473.20088
 31
0.0
  0
LINE
  5
410
330
A
100
AcDbEntity
  8
0
  6
Continuous
100
AcDbLine
 10
1603.40476
 20
514.1993099999999
 30
0.0
 11
1603.40476
 21
503.19931
 31
0.0
  0
LINE
  5
411
330
A
100
AcDbEntity
  8
0
  6
Continuous
100
AcDbLine
 10
1601.40476
 20
499.19931
 30
0.0
 11
1603.40476
 21
499.19931
 31
0.0
  0
LINE
  5
412
330
A
100
AcDbEntity
  8
0
  6
Continuous
100
AcDbLine
 10
1603.40476
 20
499.19931
 30
0.0
 11
1603.40476
 21
495.19931
 31
0.0
  0
LINE
  5
413
330
A
100
AcDbEntity
  8
0
  6
Continuous
100
AcDbLine
 10
1601.40476
 20
497.1993099999999
 30
0.0
 11
1596.40476
 21
497.1993099999999
 31
0.0
  0
LINE
  5
414
330
A
100
AcDbEntity
  8
0
  6
Continuous
100
AcDbLine
 10
1596.40476
 20
497.1993099999999
 30
0.0
 11
1596.40476
 21
505.1993099999999
 31
0.0
  0
LINE
  5
415
330
A
100
AcDbEntity
  8
0
  6
Continuous
100
AcDbLine
 10
1603.40476
 20
503.19931
 30
0.0
 11
1601.40476
 21
503.19931
 31
0.0
  0
LINE
  5
416
330
A
100
AcDbEntity
  8
0
  6
Continuous
100
AcDbLine
 10
1601.40476
 20
505.1993099999999
 30
0.0
 11
1596.40476
 21
505.1993099999999
 31
0.0
  0
LINE
  5
417
330
A
100
AcDbEntity
  8
0
  6
Continuous
100
AcDbLine
 10
1594.40476
 20
505.1993099999999
 30
0.0
 11
1594.40476
 21
498.1993099999999
 31
0.0
  0
ARC
  5
418
330
A
100
AcDbEntity
  8
0
  6
Continuous
100
AcDbCircle
 10
1600.40476
 20
477.1993099999999
 30
0.0
 40
1.0
100
AcDbArc
 50
0.0
 51
90.0
  0
LINE
  5
419
330
A
100
AcDbEntity
  8
0
  6
Continuous
100
AcDbLine
 10
1601.40476
 20
476.20088
 30
0.0
 11
1601.40476
 21
477.1993099999999
 31
0.0
  0
ARC
  5
41A
330
A
100
AcDbEntity
  8
0
  6
Continuous
100
AcDbCircle
 10
1600.40476
 20
476.20088
 30
0.0
 40
1.0
100
AcDbArc
 50
270.0
 51
0.0
  0
LINE
  5
41B
330
A
100
AcDbEntity
  8
0
  6
Continuous
100
AcDbLine
 10
1598.90476
 20
475.2008799999999
 30
0.0
 11
1600.40476
 21
475.2008799999999
 31
0.0
  0
ARC
  5
41C
330
A
100
AcDbEntity
  8
0
  6
Continuous
100
AcDbCircle
 10
1598.90476
 20
474.2008799999999
 30
0.0
 40
1.0
100
AcDbArc
 50
90.0
 51
180.0
  0
LINE
  5
41D
330
A
100
AcDbEntity
  8
0
  6
Continuous
100
AcDbLine
 10
1594.40476
 20
505.1993099999999
 30
0.0
 11
1576.40476
 21
505.1993099999999
 31
0.0
  0
LINE
  5
41E
330
A
100
AcDbEntity
  8
0
  6
Continuous
100
AcDbLine
 10
1600.40476
 20
456.20088
 30
0.0
 11
1599.90476
 21
456.20088
 31
0.0
  0
ARC
  5
41F
330
A
100
AcDbEntity
  8
0
  6
Continuous
100
AcDbCircle
 10
1601.40476
 20
446.1993099999999
 30
0.0
 40
2.0
100
AcDbArc
 50
217.2
 51
0.0
  0
LINE
  5
420
330
A
100
AcDbEntity
  8
0
  6
Continuous
100
AcDbLine
 10
1573.40476
 20
514.1993099999999
 30
0.0
 11
1573.40476
 21
493.24145
 31
0.0
  0
LINE
  5
421
330
A
100
AcDbEntity
  8
0
  6
Continuous
100
AcDbLine
 10
1599.8117
 20
444.9901099999999
 30
0.0
 11
1581.54356
 21
469.05749
 31
0.0
  0
ARC
  5
422
330
A
100
AcDbEntity
  8
0
  6
Continuous
100
AcDbCircle
 10
1613.40476
 20
493.24145
 30
0.0
 40
40.0
100
AcDbArc
 50
180.0
 51
217.2
  0
LINE
  5
423
330
A
100
AcDbEntity
  8
0
  6
Continuous
100
AcDbLine
 10
1576.40476
 20
505.1993099999999
 30
0.0
 11
1576.40476
 21
491.924
 31
0.0
  0
LINE
  5
424
330
A
100
AcDbEntity
  8
0
  6
Continuous
100
AcDbLine
 10
1583.65928
 20
478.19931
 30
0.0
 11
1600.40476
 21
478.19931
 31
0.0
  0
ARC
  5
425
330
A
100
AcDbEntity
  8
0
  6
Continuous
100
AcDbCircle
 10
1614.40476
 20
491.924
 30
0.0
 40
38.0
100
AcDbArc
 50
208.54497
 51
217.2
  0
ARC
  5
426
330
A
100
AcDbEntity
  8
0
  6
Continuous
100
AcDbCircle
 10
1583.65928
 20
475.1993099999999
 30
0.0
 40
3.0
100
AcDbArc
 50
90.0
 51
208.54497
  0
ARC
  5
427
330
A
100
AcDbEntity
  8
0
  6
Continuous
100
AcDbCircle
 10
1580.40476
 20
484.1993099999999
 30
0.0
 40
3.0
100
AcDbArc
 50
270.0
 51
0.0
  0
LINE
  5
428
330
A
100
AcDbEntity
  8
0
  6
Continuous
100
AcDbLine
 10
1580.26784
 20
481.1993099999999
 30
0.0
 11
1580.40476
 21
481.1993099999999
 31
0.0
  0
ARC
  5
429
330
A
100
AcDbEntity
  8
0
  6
Continuous
100
AcDbCircle
 10
1614.40476
 20
491.924
 30
0.0
 40
38.0
100
AcDbArc
 50
180.0
 51
192.75048
  0
ARC
  5
42A
330
A
100
AcDbEntity
  8
0
  6
Continuous
100
AcDbCircle
 10
1580.26784
 20
484.1993099999999
 30
0.0
 40
3.0
100
AcDbArc
 50
192.75048
 51
270.0
  0
LINE
  5
42B
330
A
100
AcDbEntity
  8
0
  6
Continuous
100
AcDbLine
 10
1594.40476
 20
498.1993099999999
 30
0.0
 11
1585.40476
 21
498.1993099999999
 31
0.0
  0
LINE
  5
42C
330
A
100
AcDbEntity
  8
0
  6
Continuous
100
AcDbLine
 10
1583.40476
 20
496.1993099999999
 30
0.0
 11
1583.40476
 21
484.1993099999999
 31
0.0
  0
ARC
  5
42D
330
A
100
AcDbEntity
  8
0
  6
Continuous
100
AcDbCircle
 10
1585.40476
 20
496.1993099999999
 30
0.0
 40
2.0
100
AcDbArc
 50
90.0
 51
180.0
  0
LINE
  5
42E
330
A
100
AcDbEntity
  8
0
  6
Continuous
100
AcDbLine
 10
1603.40476
 20
495.19931
 30
0.0
 11
1589.40476
 21
495.19931
 31
0.0
  0
ARC
  5
42F
330
A
100
AcDbEntity
  8
0
  6
Continuous
100
AcDbCircle
 10
1589.40476
 20
494.1993099999999
 30
0.0
 40
1.0
100
AcDbArc
 50
90.0
 51
180.0
  0
LINE
  5
430
330
A
100
AcDbEntity
  8
0
  6
Continuous
100
AcDbLine
 10
1603.40476
 20
481.1993099999999
 30
0.0
 11
1589.40476
 21
481.1993099999999
 31
0.0
  0
ARC
  5
431
330
A
100
AcDbEntity
  8
0
  6
Continuous
100
AcDbCircle
 10
1589.40476
 20
482.1993099999999
 30
0.0
 40
1.0
100
AcDbArc
 50
180.0
 51
270.0
  0
LINE
  5
432
330
A
100
AcDbEntity
  8
0
  6
Continuous
100
AcDbLine
 10
1600.40476
 20
449.0024799999999
 30
0.0
 11
1600.40476
 21
456.20088
 31
0.0
  0
LINE
  5
433
330
A
100
AcDbEntity
  8
0
  6
Continuous
100
AcDbLine
 10
1584.13662
 20
468.94924
 30
0.0
 11
1599.5065
 21
448.7001799999999
 31
0.0
  0
ARC
  5
434
330
A
100
AcDbEntity
  8
0
  6
Continuous
100
AcDbCircle
 10
1599.90476
 20
449.0024799999999
 30
0.0
 40
0.5
100
AcDbArc
 50
217.2
 51
0.0
  0
LINE
  5
435
330
A
100
AcDbEntity
  8
0
  6
Continuous
100
AcDbLine
 10
1585.90476
 20
507.69931
 30
0.0
 11
1590.90476
 21
507.69931
 31
0.0
  0
LINE
  5
436
330
A
100
AcDbEntity
  8
0
  6
Continuous
100
AcDbLine
 10
1585.90476
 20
508.99931
 30
0.0
 11
1585.90476
 21
507.69931
 31
0.0
  0
LINE
  5
437
330
A
100
AcDbEntity
  8
0
  6
Continuous
100
AcDbLine
 10
1590.90476
 20
507.69931
 30
0.0
 11
1590.90476
 21
508.99931
 31
0.0
  0
LINE
  5
438
330
A
100
AcDbEntity
  8
0
  6
Continuous
100
AcDbLine
 10
1598.90476
 20
507.1993099999999
 30
0.0
 11
1598.90476
 21
512.19931
 31
0.0
  0
LINE
  5
439
330
A
100
AcDbEntity
  8
0
  6
Continuous
100
AcDbLine
 10
1598.90476
 20
512.19931
 30
0.0
 11
1591.65476
 21
512.19931
 31
0.0
  0
LINE
  5
43A
330
A
100
AcDbEntity
  8
0
  6
Continuous
100
AcDbLine
 10
1577.90476
 20
512.19931
 30
0.0
 11
1577.90476
 21
507.1993099999999
 31
0.0
  0
LINE
  5
43B
330
A
100
AcDbEntity
  8
0
  6
Continuous
100
AcDbLine
 10
1591.65476
 20
512.19931
 30
0.0
 11
1577.90476
 21
512.19931
 31
0.0
  0
LINE
  5
43C
330
A
100
AcDbEntity
  8
0
  6
Continuous
100
AcDbLine
 10
1598.90476
 20
507.1993099999999
 30
0.0
 11
1577.90476
 21
507.1993099999999
 31
0.0
  0
LINE
  5
43D
330
A
100
AcDbEntity
  8
0
  6
Continuous
100
AcDbLine
 10
1599.90476
 20
473.20088
 30
0.0
 11
1599.90476
 21
458.2008799999999
 31
0.0
  0
LINE
  5
43E
330
A
100
AcDbEntity
  8
0
  6
Continuous
100
AcDbLine
 10
1599.90476
 20
458.2008799999999
 30
0.0
 11
1603.40476
 21
458.2008799999999
 31
0.0
  0
LINE
  5
43F
330
A
100
AcDbEntity
  8
0
  6
Continuous
100
AcDbLine
 10
1597.90476
 20
474.2008799999999
 30
0.0
 11
1597.90476
 21
458.2008799999999
 31
0.0
  0
ARC
  5
440
330
A
100
AcDbEntity
  8
0
  6
Continuous
100
AcDbCircle
 10
1599.90476
 20
458.2008799999999
 30
0.0
 40
2.0
100
AcDbArc
 50
180.0
 51
270.0
  0
LINE
  5
441
330
A
100
AcDbEntity
  8
0
  6
Continuous
100
AcDbLine
 10
1578.40476
 20
508.99931
 30
0.0
 11
1598.40476
 21
508.99931
 31
0.0
  0
LINE
  5
442
330
A
100
AcDbEntity
  8
0
  6
Continuous
100
AcDbLine
 10
1598.40476
 20
512.19931
 30
0.0
 11
1598.40476
 21
508.99931
 31
0.0
  0
LINE
  5
443
330
A
100
AcDbEntity
  8
0
  6
Continuous
100
AcDbLine
 10
1575.90476
 20
614.1993099999999
 30
0.0
 11
1600.90476
 21
614.1993099999999
 31
0.0
  0
LINE
  5
444
330
A
100
AcDbEntity
  8
0
  6
Continuous
100
AcDbLine
 10
1578.40476
 20
607.4993099999999
 30
0.0
 11
1598.40476
 21
607.4993099999999
 31
0.0
  0
LINE
  5
445
330
A
100
AcDbEntity
  8
0
  6
Continuous
100
AcDbLine
 10
1598.40476
 20
610.6993099999999
 30
0.0
 11
1598.40476
 21
607.4993099999999
 31
0.0
  0
LINE
  5
446
330
A
100
AcDbEntity
  8
0
  6
Continuous
100
AcDbLine
 10
1598.40476
 20
610.6993099999999
 30
0.0
 11
1577.90476
 21
610.6993099999999
 31
0.0
  0
LINE
  5
447
330
A
100
AcDbEntity
  8
0
  6
Continuous
100
AcDbLine
 10
1603.40476
 20
614.1993099999999
 30
0.0
 11
1603.40476
 21
564.1993099999999
 31
0.0
  0
LINE
  5
448
330
A
100
AcDbEntity
  8
0
  6
Continuous
100
AcDbLine
 10
1573.40476
 20
564.1993099999999
 30
0.0
 11
1573.40476
 21
614.1993099999999
 31
0.0
  0
LINE
  5
449
330
A
100
AcDbEntity
  8
0
  6
Continuous
100
AcDbLine
 10
1579.90476
 20
603.69931
 30
0.0
 11
1579.90476
 21
600.1993099999999
 31
0.0
  0
LINE
  5
44A
330
A
100
AcDbEntity
  8
0
  6
Continuous
100
AcDbLine
 10
1579.90476
 20
600.1993099999999
 30
0.0
 11
1577.90476
 21
600.1993099999999
 31
0.0
  0
LINE
  5
44B
330
A
100
AcDbEntity
  8
0
  6
Continuous
100
AcDbLine
 10
1577.90476
 20
600.1993099999999
 30
0.0
 11
1577.90476
 21
603.69931
 31
0.0
  0
LINE
  5
44C
330
A
100
AcDbEntity
  8
0
  6
Continuous
100
AcDbLine
 10
1577.90476
 20
603.69931
 30
0.0
 11
1575.40476
 21
603.69931
 31
0.0
  0
LINE
  5
44D
330
A
100
AcDbEntity
  8
0
  6
Continuous
100
AcDbLine
 10
1584.90476
 20
610.6993099999999
 30
0.0
 11
1584.90476
 21
614.1993099999999
 31
0.0
  0
LINE
  5
44E
330
A
100
AcDbEntity
  8
0
  6
Continuous
100
AcDbLine
 10
1577.90476
 20
605.6993099999999
 30
0.0
 11
1577.90476
 21
610.6993099999999
 31
0.0
  0
LINE
  5
44F
330
A
100
AcDbEntity
  8
0
  6
Continuous
100
AcDbLine
 10
1596.90476
 20
603.69931
 30
0.0
 11
1596.90476
 21
600.1993099999999
 31
0.0
  0
LINE
  5
450
330
A
100
AcDbEntity
  8
0
  6
Continuous
100
AcDbLine
 10
1596.90476
 20
600.1993099999999
 30
0.0
 11
1598.90476
 21
600.1993099999999
 31
0.0
  0
LINE
  5
451
330
A
100
AcDbEntity
  8
0
  6
Continuous
100
AcDbLine
 10
1598.90476
 20
600.1993099999999
 30
0.0
 11
1598.90476
 21
603.69931
 31
0.0
  0
LINE
  5
452
330
A
100
AcDbEntity
  8
0
  6
Continuous
100
AcDbLine
 10
1598.90476
 20
603.69931
 30
0.0
 11
1601.40476
 21
603.69931
 31
0.0
  0
LINE
  5
453
330
A
100
AcDbEntity
  8
0
  6
Continuous
100
AcDbLine
 10
1598.90476
 20
610.6993099999999
 30
0.0
 11
1591.90476
 21
610.6993099999999
 31
0.0
  0
LINE
  5
454
330
A
100
AcDbEntity
  8
0
  6
Continuous
100
AcDbLine
 10
1591.90476
 20
610.6993099999999
 30
0.0
 11
1591.90476
 21
614.1993099999999
 31
0.0
  0
LINE
  5
455
330
A
100
AcDbEntity
  8
0
  6
Continuous
100
AcDbLine
 10
1598.90476
 20
605.6993099999999
 30
0.0
 11
1598.90476
 21
610.6993099999999
 31
0.0
  0
LINE
  5
456
330
A
100
AcDbEntity
  8
0
  6
Continuous
100
AcDbLine
 10
1577.90476
 20
605.6993099999999
 30
0.0
 11
1598.90476
 21
605.6993099999999
 31
0.0
  0
LINE
  5
457
330
A
100
AcDbEntity
  8
0
  6
Continuous
100
AcDbLine
 10
1596.90476
 20
603.69931
 30
0.0
 11
1579.90476
 21
603.69931
 31
0.0
  0
LINE
  5
458
330
A
100
AcDbEntity
  8
0
  6
Continuous
100
AcDbLine
 10
1579.90476
 20
574.69931
 30
0.0
 11
1579.90476
 21
578.19931
 31
0.0
  0
LINE
  5
459
330
A
100
AcDbEntity
  8
0
  6
Continuous
100
AcDbLine
 10
1579.90476
 20
578.19931
 30
0.0
 11
1577.90476
 21
578.19931
 31
0.0
  0
LINE
  5
45A
330
A
100
AcDbEntity
  8
0
  6
Continuous
100
AcDbLine
 10
1577.90476
 20
578.19931
 30
0.0
 11
1577.90476
 21
574.69931
 31
0.0
  0
LINE
  5
45B
330
A
100
AcDbEntity
  8
0
  6
Continuous
100
AcDbLine
 10
1577.90476
 20
567.6993099999999
 30
0.0
 11
1584.90476
 21
567.6993099999999
 31
0.0
  0
LINE
  5
45C
330
A
100
AcDbEntity
  8
0
  6
Continuous
100
AcDbLine
 10
1584.90476
 20
567.6993099999999
 30
0.0
 11
1584.90476
 21
564.1993099999999
 31
0.0
  0
LINE
  5
45D
330
A
100
AcDbEntity
  8
0
  6
Continuous
100
AcDbLine
 10
1577.90476
 20
572.6993099999999
 30
0.0
 11
1577.90476
 21
567.6993099999999
 31
0.0
  0
LINE
  5
45E
330
A
100
AcDbEntity
  8
0
  6
Continuous
100
AcDbLine
 10
1596.90476
 20
574.69931
 30
0.0
 11
1596.90476
 21
578.19931
 31
0.0
  0
LINE
  5
45F
330
A
100
AcDbEntity
  8
0
  6
Continuous
100
AcDbLine
 10
1596.90476
 20
578.19931
 30
0.0
 11
1598.90476
 21
578.19931
 31
0.0
  0
LINE
  5
460
330
A
100
AcDbEntity
  8
0
  6
Continuous
100
AcDbLine
 10
1598.90476
 20
578.19931
 30
0.0
 11
1598.90476
 21
574.69931
 31
0.0
  0
LINE
  5
461
330
A
100
AcDbEntity
  8
0
  6
Continuous
100
AcDbLine
 10
1598.90476
 20
567.6993099999999
 30
0.0
 11
1591.90476
 21
567.6993099999999
 31
0.0
  0
LINE
  5
462
330
A
100
AcDbEntity
  8
0
  6
Continuous
100
AcDbLine
 10
1591.90476
 20
567.6993099999999
 30
0.0
 11
1591.90476
 21
564.1993099999999
 31
0.0
  0
LINE
  5
463
330
A
100
AcDbEntity
  8
0
  6
Continuous
100
AcDbLine
 10
1598.90476
 20
572.6993099999999
 30
0.0
 11
1598.90476
 21
567.6993099999999
 31
0.0
  0
LINE
  5
464
330
A
100
AcDbEntity
  8
0
  6
Continuous
100
AcDbLine
 10
1577.90476
 20
572.6993099999999
 30
0.0
 11
1598.90476
 21
572.6993099999999
 31
0.0
  0
LINE
  5
465
330
A
100
AcDbEntity
  8
0
  6
Continuous
100
AcDbLine
 10
1596.90476
 20
574.69931
 30
0.0
 11
1579.90476
 21
574.69931
 31
0.0
  0
LINE
  5
466
330
A
100
AcDbEntity
  8
0
  6
Continuous
100
AcDbLine
 10
1598.90476
 20
574.69931
 30
0.0
 11
1601.40476
 21
574.69931
 31
0.0
  0
LINE
  5
467
330
A
100
AcDbEntity
  8
0
  6
Continuous
100
AcDbLine
 10
1601.40476
 20
603.69931
 30
0.0
 11
1601.40476
 21
574.69931
 31
0.0
  0
LINE
  5
468
330
A
100
AcDbEntity
  8
0
  6
Continuous
100
AcDbLine
 10
1577.90476
 20
574.69931
 30
0.0
 11
1575.40476
 21
574.69931
 31
0.0
  0
LINE
  5
469
330
A
100
AcDbEntity
  8
0
  6
Continuous
100
AcDbLine
 10
1575.40476
 20
603.69931
 30
0.0
 11
1575.40476
 21
574.69931
 31
0.0
  0
LINE
  5
46A
330
A
100
AcDbEntity
  8
0
  6
Continuous
100
AcDbLine
 10
1573.40476
 20
614.1993099999999
 30
0.0
 11
1584.90476
 21
614.1993099999999
 31
0.0
  0
LINE
  5
46B
330
A
100
AcDbEntity
  8
0
  6
Continuous
100
AcDbLine
 10
1591.90476
 20
614.1993099999999
 30
0.0
 11
1603.40476
 21
614.1993099999999
 31
0.0
  0
LINE
  5
46C
330
A
100
AcDbEntity
  8
0
  6
Continuous
100
AcDbLine
 10
1603.40476
 20
564.1993099999999
 30
0.0
 11
1591.90476
 21
564.1993099999999
 31
0.0
  0
LINE
  5
46D
330
A
100
AcDbEntity
  8
0
  6
Continuous
100
AcDbLine
 10
1584.90476
 20
564.1993099999999
 30
0.0
 11
1573.40476
 21
564.1993099999999
 31
0.0
  0
LINE
  5
46E
330
A
100
AcDbEntity
  8
0
  6
Continuous
100
AcDbLine
 10
1582.90476
 20
518.9993099999999
 30
0.0
 11
1582.90476
 21
557.8993099999999
 31
0.0
  0
LINE
  5
46F
330
A
100
AcDbEntity
  8
0
  6
Continuous
100
AcDbLine
 10
1582.90476
 20
557.8993099999999
 30
0.0
 11
1584.50476
 21
557.8993099999999
 31
0.0
  0
LINE
  5
470
330
A
100
AcDbEntity
  8
0
  6
Continuous
100
AcDbLine
 10
1593.90476
 20
518.9993099999999
 30
0.0
 11
1593.90476
 21
557.8993099999999
 31
0.0
  0
LINE
  5
471
330
A
100
AcDbEntity
  8
0
  6
Continuous
100
AcDbLine
 10
1593.90476
 20
557.8993099999999
 30
0.0
 11
1592.30476
 21
557.8993099999999
 31
0.0
  0
LINE
  5
472
330
A
100
AcDbEntity
  8
0
  6
Continuous
100
AcDbLine
 10
1590.40476
 20
520.3993099999999
 30
0.0
 11
1586.40476
 21
520.3993099999999
 31
0.0
  0
LINE
  5
473
330
A
100
AcDbEntity
  8
0
  6
Continuous
100
AcDbLine
 10
1584.50476
 20
548.64931
 30
0.0
 11
1586.40476
 21
548.64931
 31
0.0
  0
LINE
  5
474
330
A
100
AcDbEntity
  8
0
  6
Continuous
100
AcDbLine
 10
1584.50476
 20
552.64931
 30
0.0
 11
1586.40476
 21
552.64931
 31
0.0
  0
LINE
  5
475
330
A
100
AcDbEntity
  8
0
  6
Continuous
100
AcDbLine
 10
1590.40476
 20
548.64931
 30
0.0
 11
1592.30476
 21
548.64931
 31
0.0
  0
LINE
  5
476
330
A
100
AcDbEntity
  8
0
  6
Continuous
100
AcDbLine
 10
1590.40476
 20
552.64931
 30
0.0
 11
1592.30476
 21
552.64931
 31
0.0
  0
LINE
  5
477
330
A
100
AcDbEntity
  8
0
  6
Continuous
100
AcDbLine
 10
1586.40476
 20
520.3993099999999
 30
0.0
 11
1586.40476
 21
555.6493099999999
 31
0.0
  0
LINE
  5
478
330
A
100
AcDbEntity
  8
0
  6
Continuous
100
AcDbLine
 10
1586.40476
 20
555.6493099999999
 30
0.0
 11
1590.40476
 21
555.6493099999999
 31
0.0
  0
LINE
  5
479
330
A
100
AcDbEntity
  8
0
  6
Continuous
100
AcDbLine
 10
1590.40476
 20
555.6493099999999
 30
0.0
 11
1590.40476
 21
520.3993099999999
 31
0.0
  0
LINE
  5
47A
330
A
100
AcDbEntity
  8
0
  6
Continuous
100
AcDbLine
 10
1574.90476
 20
517.39931
 30
0.0
 11
1574.90476
 21
518.9993099999999
 31
0.0
  0
LINE
  5
47B
330
A
100
AcDbEntity
  8
0
  6
Continuous
100
AcDbLine
 10
1601.90476
 20
517.39931
 30
0.0
 11
1601.90476
 21
518.9993099999999
 31
0.0
  0
LINE
  5
47C
330
A
100
AcDbEntity
  8
0
  6
Continuous
100
AcDbLine
 10
1606.80476
 20
494.3993099999999
 30
0.0
 11
1604.80476
 21
494.3993099999999
 31
0.0
  0
LINE
  5
47D
330
A
100
AcDbEntity
  8
0
  6
Continuous
100
AcDbLine
 10
1604.80476
 20
494.3993099999999
 30
0.0
 11
1604.80476
 21
517.39931
 31
0.0
  0
LINE
  5
47E
330
A
100
AcDbEntity
  8
0
  6
Continuous
100
AcDbLine
 10
1604.80476
 20
517.39931
 30
0.0
 11
1576.80476
 21
517.39931
 31
0.0
  0
LINE
  5
47F
330
A
100
AcDbEntity
  8
0
  6
Continuous
100
AcDbLine
 10
1576.80476
 20
517.39931
 30
0.0
 11
1576.80476
 21
519.39931
 31
0.0
  0
LINE
  5
480
330
A
100
AcDbEntity
  8
0
  6
Continuous
100
AcDbLine
 10
1576.80476
 20
519.39931
 30
0.0
 11
1606.80476
 21
519.39931
 31
0.0
  0
LINE
  5
481
330
A
100
AcDbEntity
  8
0
  6
Continuous
100
AcDbLine
 10
1592.30476
 20
557.8993099999999
 30
0.0
 11
1592.30476
 21
519.39931
 31
0.0
  0
LINE
  5
482
330
A
100
AcDbEntity
  8
0
  6
Continuous
100
AcDbLine
 10
1584.50476
 20
557.8993099999999
 30
0.0
 11
1584.50476
 21
519.39931
 31
0.0
  0
LINE
  5
483
330
A
100
AcDbEntity
  8
0
  6
Continuous
100
AcDbLine
 10
1574.90476
 20
518.9993099999999
 30
0.0
 11
1576.80476
 21
518.9993099999999
 31
0.0
  0
LINE
  5
484
330
A
100
AcDbEntity
  8
0
  6
DASHED
100
AcDbLine
 10
1584.50476
 20
519.39931
 30
0.0
 11
1584.50476
 21
517.39931
 31
0.0
  0
LINE
  5
485
330
A
100
AcDbEntity
  8
0
  6
DASHED
100
AcDbLine
 10
1592.30476
 20
519.39931
 30
0.0
 11
1592.30476
 21
517.39931
 31
0.0
  0
LINE
  5
486
330
A
100
AcDbEntity
  8
0
  6
Continuous
100
AcDbLine
 10
1606.80476
 20
536.52444
 30
0.0
 11
1606.80476
 21
447.48967
 31
0.0
  0
LINE
  5
487
330
A
100
AcDbEntity
  8
0
  6
Continuous
100
AcDbLine
 10
1606.80476
 20
447.48967
 30
0.0
 11
1610.00476
 21
447.48967
 31
0.0
  0
LINE
  5
488
330
A
100
AcDbEntity
  8
0
  6
Continuous
100
AcDbLine
 10
1610.00476
 20
447.48967
 30
0.0
 11
1610.00476
 21
536.52444
 31
0.0
  0
LINE
  5
489
330
A
100
AcDbEntity
  8
0
  6
Continuous
100
AcDbLine
 10
1610.00476
 20
536.52444
 30
0.0
 11
1606.80476
 21
536.52444
 31
0.0
  0
LINE
  5
48A
330
A
100
AcDbEntity
  8
0
  6
Continuous
100
AcDbLine
 10
1408.20476
 20
655.1993099999999
 30
0.0
 11
1363.20476
 21
655.1993099999999
 31
0.0
  0
LINE
  5
48B
330
A
100
AcDbEntity
  8
0
  6
Continuous
100
AcDbLine
 10
1363.20476
 20
655.1993099999999
 30
0.0
 11
1363.20476
 21
652.89931
 31
0.0
  0
LINE
  5
48C
330
A
100
AcDbEntity
  8
0
  6
Continuous
100
AcDbLine
 10
1363.20476
 20
652.89931
 30
0.0
 11
1405.90476
 21
652.89931
 31
0.0
  0
LINE
  5
48D
330
A
100
AcDbEntity
  8
0
  6
Continuous
100
AcDbLine
 10
1390.20476
 20
655.1993099999999
 30
0.0
 11
1390.20476
 21
652.89931
 31
0.0
  0
LINE
  5
48E
330
A
100
AcDbEntity
  8
0
  6
Continuous
100
AcDbLine
 10
1440.90476
 20
630.1993099999999
 30
0.0
 11
1440.90476
 21
632.4993099999999
 31
0.0
  0
LINE
  5
48F
330
A
100
AcDbEntity
  8
0
  6
Continuous
100
AcDbLine
 10
1440.90476
 20
632.4993099999999
 30
0.0
 11
1408.20476
 21
632.4993099999999
 31
0.0
  0
LINE
  5
490
330
A
100
AcDbEntity
  8
0
  6
Continuous
100
AcDbLine
 10
1408.20476
 20
632.4993099999999
 30
0.0
 11
1408.20476
 21
655.1993099999999
 31
0.0
  0
LINE
  5
491
330
A
100
AcDbEntity
  8
0
  6
Continuous
100
AcDbLine
 10
1405.90476
 20
652.89931
 30
0.0
 11
1405.90476
 21
630.1993099999999
 31
0.0
  0
LINE
  5
492
330
A
100
AcDbEntity
  8
0
  6
DASHDOT
100
AcDbLine
 10
1588.40476
 20
549.91177
 30
0.0
 11
1588.40476
 21
622.81982
 31
0.0
  0
LINE
  5
493
330
A
100
AcDbEntity
  8
0
  6
Continuous
100
AcDbLine
 10
1598.40476
 20
517.39931
 30
0.0
 11
1598.40476
 21
514.1993099999999
 31
0.0
  0
LINE
  5
494
330
A
100
AcDbEntity
  8
0
  6
Continuous
100
AcDbLine
 10
1578.40476
 20
517.39931
 30
0.0
 11
1528.40476
 21
517.39931
 31
0.0
  0
LINE
  5
495
330
A
100
AcDbEntity
  8
0
  6
Continuous
100
AcDbLine
 10
1528.40476
 20
517.39931
 30
0.0
 11
1528.40476
 21
514.1993099999999
 31
0.0
  0
LINE
  5
496
330
A
100
AcDbEntity
  8
0
  6
Continuous
100
AcDbLine
 10
1578.40476
 20
617.39931
 30
0.0
 11
1598.40476
 21
617.39931
 31
0.0
  0
LINE
  5
497
330
A
100
AcDbEntity
  8
0
  6
Continuous
100
AcDbLine
 10
1598.40476
 20
617.39931
 30
0.0
 11
1598.40476
 21
614.1993099999999
 31
0.0
  0
LINE
  5
498
330
A
100
AcDbEntity
  8
0
  6
Continuous
100
AcDbLine
 10
1578.40476
 20
617.39931
 30
0.0
 11
1528.40476
 21
617.39931
 31
0.0
  0
LINE
  5
499
330
A
100
AcDbEntity
  8
0
  6
Continuous
100
AcDbLine
 10
1528.40476
 20
617.39931
 30
0.0
 11
1528.40476
 21
614.1993099999999
 31
0.0
  0
LINE
  5
49A
330
A
100
AcDbEntity
  8
0
  6
Continuous
100
AcDbLine
 10
1600.90476
 20
564.1993099999999
 30
0.0
 11
1600.90476
 21
560.9993099999999
 31
0.0
  0
LINE
  5
49B
330
A
100
AcDbEntity
  8
0
  6
Continuous
100
AcDbLine
 10
1575.90476
 20
564.1993099999999
 30
0.0
 11
1600.90476
 21
564.1993099999999
 31
0.0
  0
LINE
  5
49C
330
A
100
AcDbEntity
  8
0
  6
Continuous
100
AcDbLine
 10
1575.90476
 20
560.9993099999999
 30
0.0
 11
1600.90476
 21
560.9993099999999
 31
0.0
  0
LINE
  5
49D
330
A
100
AcDbEntity
  8
0
  6
Continuous
100
AcDbLine
 10
1575.90476
 20
564.1993099999999
 30
0.0
 11
1575.90476
 21
560.9993099999999
 31
0.0
  0
LINE
  5
49E
330
A
100
AcDbEntity
  8
0
  6
Continuous
100
AcDbLine
 10
1583.90476
 20
560.9993099999999
 30
0.0
 11
1583.90476
 21
550.39931
 31
0.0
  0
ARC
  5
49F
330
A
100
AcDbEntity
  8
0
  6
Continuous
100
AcDbCircle
 10
1584.90476
 20
550.39931
 30
0.0
 40
1.0
100
AcDbArc
 50
180.0
 51
270.0
  0
LINE
  5
4A0
330
A
100
AcDbEntity
  8
0
  6
Continuous
100
AcDbLine
 10
1584.90476
 20
549.3993099999999
 30
0.0
 11
1591.90476
 21
549.3993099999999
 31
0.0
  0
LINE
  5
4A1
330
A
100
AcDbEntity
  8
0
  6
Continuous
100
AcDbLine
 10
1592.90476
 20
550.39931
 30
0.0
 11
1592.90476
 21
560.9993099999999
 31
0.0
  0
ARC
  5
4A2
330
A
100
AcDbEntity
  8
0
  6
Continuous
100
AcDbCircle
 10
1591.90476
 20
550.39931
 30
0.0
 40
1.0
100
AcDbArc
 50
270.0
 51
0.0
  0
LINE
  5
4A3
330
A
100
AcDbEntity
  8
0
  6
Continuous
100
AcDbLine
 10
1580.90476
 20
567.7718099999999
 30
0.0
 11
1580.90476
 21
550.39931
 31
0.0
  0
LINE
  5
4A4
330
A
100
AcDbEntity
  8
0
  6
Continuous
100
AcDbLine
 10
1584.90476
 20
546.39931
 30
0.0
 11
1591.90476
 21
546.39931
 31
0.0
  0
LINE
  5
4A5
330
A
100
AcDbEntity
  8
0
  6
Continuous
100
AcDbLine
 10
1595.90476
 20
567.7718099999999
 30
0.0
 11
1595.90476
 21
550.39931
 31
0.0
  0
LINE
  5
4A6
330
A
100
AcDbEntity
  8
0
  6
Continuous
100
AcDbLine
 10
1598.90476
 20
550.39931
 30
0.0
 11
1598.90476
 21
560.9993099999999
 31
0.0
  0
ARC
  5
4A7
330
A
100
AcDbEntity
  8
0
  6
Continuous
100
AcDbCircle
 10
1591.90476
 20
550.39931
 30
0.0
 40
7.0
100
AcDbArc
 50
270.0
 51
0.0
  0
LINE
  5
4A8
330
A
100
AcDbEntity
  8
0
  6
Continuous
100
AcDbLine
 10
1584.90476
 20
543.39931
 30
0.0
 11
1591.90476
 21
543.39931
 31
0.0
  0
LINE
  5
4A9
330
A
100
AcDbEntity
  8
0
  6
Continuous
100
AcDbLine
 10
1577.90476
 20
560.9993099999999
 30
0.0
 11
1577.90476
 21
550.39931
 31
0.0
  0
ARC
  5
4AA
330
A
100
AcDbEntity
  8
0
  6
Continuous
100
AcDbCircle
 10
1584.90476
 20
550.39931
 30
0.0
 40
7.0
100
AcDbArc
 50
180.0
 51
270.0
  0
ARC
  5
4AB
330
A
100
AcDbEntity
  8
0
  6
Continuous
100
AcDbCircle
 10
1591.90476
 20
550.39931
 30
0.0
 40
4.0
100
AcDbArc
 50
270.0
 51
0.0
  0
ARC
  5
4AC
330
A
100
AcDbEntity
  8
0
  6
Continuous
100
AcDbCircle
 10
1584.90476
 20
550.39931
 30
0.0
 40
4.0
100
AcDbArc
 50
180.0
 51
270.0
  0
LINE
  5
4AD
330
A
100
AcDbEntity
  8
0
  6
Continuous
100
AcDbLine
 10
1573.40476
 20
514.1993099999999
 30
0.0
 11
1573.40476
 21
517.39931
 31
0.0
  0
LINE
  5
4AE
330
A
100
AcDbEntity
  8
0
  6
Continuous
100
AcDbLine
 10
1603.40476
 20
514.1993099999999
 30
0.0
 11
1603.40476
 21
517.39931
 31
0.0
  0
LINE
  5
4AF
330
A
100
AcDbEntity
  8
0
  6
Continuous
100
AcDbLine
 10
1603.40476
 20
517.39931
 30
0.0
 11
1573.40476
 21
517.39931
 31
0.0
  0
LINE
  5
4B0
330
A
100
AcDbEntity
  8
0
  6
Continuous
100
AcDbLine
 10
1603.40476
 20
514.1993099999999
 30
0.0
 11
1573.40476
 21
514.1993099999999
 31
0.0
  0
LINE
  5
4B1
330
A
100
AcDbEntity
  8
0
  6
Continuous
100
AcDbLine
 10
1463.40476
 20
616.4993099999999
 30
0.0
 11
1463.40476
 21
614.1993099999999
 31
0.0
  0
LINE
  5
4B2
330
A
100
AcDbEntity
  8
0
  6
Continuous
100
AcDbLine
 10
1440.90476
 20
616.4993099999999
 30
0.0
 11
1463.40476
 21
616.4993099999999
 31
0.0
  0
LINE
  5
4B3
330
A
100
AcDbEntity
  8
0
  6
Continuous
100
AcDbLine
 10
1393.40476
 20
616.4993099999999
 30
0.0
 11
1393.40476
 21
614.1993099999999
 31
0.0
  0
LINE
  5
4B4
330
A
100
AcDbEntity
  8
0
  6
Continuous
100
AcDbLine
 10
1415.90476
 20
616.4993099999999
 30
0.0
 11
1393.40476
 21
616.4993099999999
 31
0.0
  0
LINE
  5
4B5
330
A
100
AcDbEntity
  8
0
  6
Continuous
100
AcDbLine
 10
1438.60476
 20
627.89931
 30
0.0
 11
1418.20476
 21
627.89931
 31
0.0
  0
LINE
  5
4B6
330
A
100
AcDbEntity
  8
0
  6
Continuous
100
AcDbLine
 10
1440.90476
 20
630.1993099999999
 30
0.0
 11
1440.90476
 21
616.4993099999999
 31
0.0
  0
LINE
  5
4B7
330
A
100
AcDbEntity
  8
0
  6
Continuous
100
AcDbLine
 10
1438.60476
 20
614.1993099999999
 30
0.0
 11
1438.60476
 21
627.89931
 31
0.0
  0
LINE
  5
4B8
330
A
100
AcDbEntity
  8
0
  6
Continuous
100
AcDbLine
 10
1418.20476
 20
614.1993099999999
 30
0.0
 11
1418.20476
 21
627.89931
 31
0.0
  0
LINE
  5
4B9
330
A
100
AcDbEntity
  8
0
  6
Continuous
100
AcDbLine
 10
1440.90476
 20
630.1993099999999
 30
0.0
 11
1405.90476
 21
630.1993099999999
 31
0.0
  0
LINE
  5
4BA
330
A
100
AcDbEntity
  8
0
  6
Continuous
100
AcDbLine
 10
1415.90476
 20
630.1993099999999
 30
0.0
 11
1415.90476
 21
616.4993099999999
 31
0.0
  0
LINE
  5
4BB
330
A
100
AcDbEntity
  8
0
  6
Continuous
100
AcDbLine
 10
1382.52881
 20
652.89931
 30
0.0
 11
1382.52881
 21
645.7942
 31
0.0
  0
LINE
  5
4BC
330
A
100
AcDbEntity
  8
0
  6
Continuous
100
AcDbLine
 10
1387.42133
 20
652.89931
 30
0.0
 11
1387.42133
 21
645.7942
 31
0.0
  0
LINE
  5
4BD
330
A
100
AcDbEntity
  8
0
  6
Continuous
100
AcDbLine
 10
1387.42133
 20
645.7942
 30
0.0
 11
1385.87134
 21
644.89931
 31
0.0
  0
LINE
  5
4BE
330
A
100
AcDbEntity
  8
0
  6
Continuous
100
AcDbLine
 10
1385.87134
 20
644.89931
 30
0.0
 11
1377.62134
 21
644.89931
 31
0.0
  0
ARC
  5
4BF
330
A
100
AcDbEntity
  8
0
  6
Continuous
100
AcDbCircle
 10
1384.97507
 20
648.6135400000001
 30
0.0
 40
3.732671999999999
100
AcDbArc
 50
229.05273
 51
310.94725
  0
LINE
  5
4C0
330
A
100
AcDbEntity
  8
0
  6
Continuous
100
AcDbLine
 10
1372.71387
 20
652.89931
 30
0.0
 11
1372.71387
 21
645.7942
 31
0.0
  0
LINE
  5
4C1
330
A
100
AcDbEntity
  8
0
  6
Continuous
100
AcDbLine
 10
1367.82136
 20
652.89931
 30
0.0
 11
1367.82136
 21
645.7942
 31
0.0
  0
LINE
  5
4C2
330
A
100
AcDbEntity
  8
0
  6
Continuous
100
AcDbLine
 10
1367.82136
 20
645.7942
 30
0.0
 11
1369.37134
 21
644.89931
 31
0.0
  0
LINE
  5
4C3
330
A
100
AcDbEntity
  8
0
  6
Continuous
100
AcDbLine
 10
1369.37134
 20
644.89931
 30
0.0
 11
1377.62134
 21
644.89931
 31
0.0
  0
ARC
  5
4C4
330
A
100
AcDbEntity
  8
0
  6
Continuous
100
AcDbCircle
 10
1370.26761
 20
648.6135400000001
 30
0.0
 40
3.732671999999999
100
AcDbArc
 50
229.05273
 51
310.94725
  0
ARC
  5
4C5
330
A
100
AcDbEntity
  8
0
  6
Continuous
100
AcDbCircle
 10
1377.62134
 20
658.8027499999999
 30
0.0
 40
13.903436
100
AcDbArc
 50
249.33102
 51
290.66896
  0
LINE
  5
4C6
330
A
100
AcDbEntity
  8
0
  6
Continuous
100
AcDbLine
 10
1382.62134
 20
644.89931
 30
0.0
 11
1382.62134
 21
633.93746
 31
0.0
  0
LINE
  5
4C7
330
A
100
AcDbEntity
  8
0
  6
Continuous
100
AcDbLine
 10
1382.62134
 20
633.93746
 30
0.0
 11
1381.62134
 21
632.93746
 31
0.0
  0
LINE
  5
4C8
330
A
100
AcDbEntity
  8
0
  6
Continuous
100
AcDbLine
 10
1381.62134
 20
632.93746
 30
0.0
 11
1373.62134
 21
632.93746
 31
0.0
  0
LINE
  5
4C9
330
A
100
AcDbEntity
  8
0
  6
Continuous
100
AcDbLine
 10
1372.62134
 20
644.89931
 30
0.0
 11
1372.62134
 21
633.93746
 31
0.0
  0
LINE
  5
4CA
330
A
100
AcDbEntity
  8
0
  6
Continuous
100
AcDbLine
 10
1373.62134
 20
632.93746
 30
0.0
 11
1372.62134
 21
633.93746
 31
0.0
  0
LINE
  5
4CB
330
A
100
AcDbEntity
  8
0
  6
Continuous
100
AcDbLine
 10
1382.52881
 20
655.1993099999999
 30
0.0
 11
1382.52881
 21
662.3044099999999
 31
0.0
  0
LINE
  5
4CC
330
A
100
AcDbEntity
  8
0
  6
Continuous
100
AcDbLine
 10
1387.42133
 20
655.1993099999999
 30
0.0
 11
1387.42133
 21
662.3044099999999
 31
0.0
  0
LINE
  5
4CD
330
A
100
AcDbEntity
  8
0
  6
Continuous
100
AcDbLine
 10
1387.42133
 20
662.3044099999999
 30
0.0
 11
1385.87134
 21
663.1993099999999
 31
0.0
  0
LINE
  5
4CE
330
A
100
AcDbEntity
  8
0
  6
Continuous
100
AcDbLine
 10
1385.87134
 20
663.1993099999999
 30
0.0
 11
1377.62134
 21
663.1993099999999
 31
0.0
  0
ARC
  5
4CF
330
A
100
AcDbEntity
  8
0
  6
Continuous
100
AcDbCircle
 10
1384.97507
 20
659.4850700000001
 30
0.0
 40
3.732671999999999
100
AcDbArc
 50
49.05275
 51
130.94726
  0
LINE
  5
4D0
330
A
100
AcDbEntity
  8
0
  6
Continuous
100
AcDbLine
 10
1372.71387
 20
655.1993099999999
 30
0.0
 11
1372.71387
 21
662.3044099999999
 31
0.0
  0
LINE
  5
4D1
330
A
100
AcDbEntity
  8
0
  6
Continuous
100
AcDbLine
 10
1367.82136
 20
655.1993099999999
 30
0.0
 11
1367.82136
 21
662.3044099999999
 31
0.0
  0
LINE
  5
4D2
330
A
100
AcDbEntity
  8
0
  6
Continuous
100
AcDbLine
 10
1367.82136
 20
662.3044099999999
 30
0.0
 11
1369.37134
 21
663.1993099999999
 31
0.0
  0
LINE
  5
4D3
330
A
100
AcDbEntity
  8
0
  6
Continuous
100
AcDbLine
 10
1369.37134
 20
663.1993099999999
 30
0.0
 11
1377.62134
 21
663.1993099999999
 31
0.0
  0
ARC
  5
4D4
330
A
100
AcDbEntity
  8
0
  6
Continuous
100
AcDbCircle
 10
1370.26761
 20
659.4850700000001
 30
0.0
 40
3.732671999999999
100
AcDbArc
 50
49.05275
 51
130.94726
  0
ARC
  5
4D5
330
A
100
AcDbEntity
  8
0
  6
Continuous
100
AcDbCircle
 10
1377.62134
 20
649.2958599999999
 30
0.0
 40
13.903436
100
AcDbArc
 50
69.33103199999999
 51
110.66897
  0
ARC
  5
4D6
330
A
100
AcDbEntity
  8
0
  6
Continuous
100
AcDbCircle
 10
1428.40476
 20
621.2493099999999
 30
0.0
 40
13.25
100
AcDbArc
 50
58.10920799999999
 51
121.89079
  0
LINE
  5
4D7
330
A
100
AcDbEntity
  8
0
  6
Continuous
100
AcDbLine
 10
1423.40476
 20
627.89931
 30
0.0
 11
1422.25831
 21
626.7528599999999
 31
0.0
  0
ARC
  5
4D8
330
A
100
AcDbEntity
  8
0
  6
Continuous
100
AcDbCircle
 10
1422.61187
 20
626.39931
 30
0.0
 40
0.5
100
AcDbArc
 50
135.0
 51
270.0
  0
LINE
  5
4D9
330
A
100
AcDbEntity
  8
0
  6
Continuous
100
AcDbLine
 10
1422.61187
 20
625.89931
 30
0.0
 11
1434.19765
 21
625.89931
 31
0.0
  0
LINE
  5
4DA
330
A
100
AcDbEntity
  8
0
  6
Continuous
100
AcDbLine
 10
1433.40476
 20
627.89931
 30
0.0
 11
1434.55121
 21
626.7528599999999
 31
0.0
  0
ARC
  5
4DB
330
A
100
AcDbEntity
  8
0
  6
Continuous
100
AcDbCircle
 10
1434.19765
 20
626.39931
 30
0.0
 40
0.5
100
AcDbArc
 50
270.0
 51
45.0
  0
LINE
  5
4DC
330
A
100
AcDbEntity
  8
0
  6
Continuous
100
AcDbLine
 10
1610.00476
 20
530.89931
 30
0.0
 11
1612.09391
 21
530.89931
 31
0.0
  0
LINE
  5
4DD
330
A
100
AcDbEntity
  8
0
  6
Continuous
100
AcDbLine
 10
1612.09391
 20
520.8993099999999
 30
0.0
 11
1610.00476
 21
520.8993099999999
 31
0.0
  0
LINE
  5
4DE
330
A
100
AcDbEntity
  8
0
  6
Continuous
100
AcDbLine
 10
1612.09391
 20
530.89931
 30
0.0
 11
1612.09391
 21
520.8993099999999
 31
0.0
  0
LINE
  5
4DF
330
A
100
AcDbEntity
  8
0
  6
Continuous
100
AcDbLine
 10
1606.80476
 20
521.89931
 30
0.0
 11
1603.30476
 21
521.89931
 31
0.0
  0
LINE
  5
4E0
330
A
100
AcDbEntity
  8
0
  6
Continuous
100
AcDbLine
 10
1603.30476
 20
521.89931
 30
0.0
 11
1603.30476
 21
529.89931
 31
0.0
  0
LINE
  5
4E1
330
A
100
AcDbEntity
  8
0
  6
Continuous
100
AcDbLine
 10
1603.30476
 20
529.89931
 30
0.0
 11
1606.80476
 21
529.89931
 31
0.0
  0
LINE
  5
4E2
330
A
100
AcDbEntity
  8
0
  6
Continuous
100
AcDbLine
 10
1606.80476
 20
523.39931
 30
0.0
 11
1600.09391
 21
523.39931
 31
0.0
  0
LINE
  5
4E3
330
A
100
AcDbEntity
  8
0
  6
Continuous
100
AcDbLine
 10
1606.80476
 20
528.3993099999999
 30
0.0
 11
1600.09391
 21
528.3993099999999
 31
0.0
  0
LINE
  5
4E4
330
A
100
AcDbEntity
  8
0
  6
Continuous
100
AcDbLine
 10
1600.09391
 20
523.39931
 30
0.0
 11
1600.09391
 21
528.3993099999999
 31
0.0
  0
LINE
  5
4E5
330
A
100
AcDbEntity
  8
0
  6
Continuous
100
AcDbLine
 10
1600.09391
 20
523.89931
 30
0.0
 11
1603.30476
 21
523.89931
 31
0.0
  0
LINE
  5
4E6
330
A
100
AcDbEntity
  8
0
  6
Continuous
100
AcDbLine
 10
1600.09391
 20
527.89931
 30
0.0
 11
1603.30476
 21
527.89931
 31
0.0
  0
LINE
  5
4E7
330
A
100
AcDbEntity
  8
0
  6
Continuous
100
AcDbLine
 10
1584.09391
 20
527.64931
 30
0.0
 11
1584.09391
 21
524.14931
 31
0.0
  0
LINE
  5
4E8
330
A
100
AcDbEntity
  8
0
  6
Continuous
100
AcDbLine
 10
1600.09391
 20
527.64931
 30
0.0
 11
1590.40476
 21
527.64931
 31
0.0
  0
LINE
  5
4E9
330
A
100
AcDbEntity
  8
0
  6
Continuous
100
AcDbLine
 10
1586.40476
 20
527.64931
 30
0.0
 11
1584.09391
 21
527.64931
 31
0.0
  0
LINE
  5
4EA
330
A
100
AcDbEntity
  8
0
  6
Continuous
100
AcDbLine
 10
1584.09391
 20
524.14931
 30
0.0
 11
1586.40476
 21
524.14931
 31
0.0
  0
LINE
  5
4EB
330
A
100
AcDbEntity
  8
0
  6
Continuous
100
AcDbLine
 10
1590.40476
 20
524.14931
 30
0.0
 11
1600.09391
 21
524.14931
 31
0.0
  0
LINE
  5
4EC
330
A
100
AcDbEntity
  8
0
  6
Continuous
100
AcDbLine
 10
1601.40476
 20
502.9493099999999
 30
0.0
 11
1601.40476
 21
505.1993099999999
 31
0.0
  0
LINE
  5
4ED
330
A
100
AcDbEntity
  8
0
  6
Continuous
100
AcDbLine
 10
1601.40476
 20
497.1993099999999
 30
0.0
 11
1601.40476
 21
499.4493099999999
 31
0.0
  0
LINE
  5
4EE
330
A
100
AcDbEntity
  8
0
  6
DASHDOT
100
AcDbLine
 10
1403.40476
 20
622.71927
 30
0.0
 11
1403.40476
 21
603.75562
 31
0.0
  0
LINE
  5
4EF
330
A
100
AcDbEntity
  8
0
  6
DASHDOT
100
AcDbLine
 10
1428.40476
 20
644.7087299999999
 30
0.0
 11
1428.40476
 21
612.4993099999999
 31
0.0
  0
LINE
  5
4F0
330
A
100
AcDbEntity
  8
0
  6
DASHDOT
100
AcDbLine
 10
1453.40476
 20
622.71927
 30
0.0
 11
1453.40476
 21
603.75562
 31
0.0
  0
LINE
  5
4F1
330
A
100
AcDbEntity
  8
0
  6
DASHDOT
100
AcDbLine
 10
1538.40476
 20
623.0201400000001
 30
0.0
 11
1538.40476
 21
601.7627899999999
 31
0.0
  0
LINE
  5
4F2
330
A
100
AcDbEntity
  8
0
  6
DASHDOT
100
AcDbLine
 10
1578.40476
 20
623.0201400000001
 30
0.0
 11
1578.40476
 21
605.62693
 31
0.0
  0
LINE
  5
4F3
330
A
100
AcDbEntity
  8
0
  6
DASHDOT
100
AcDbLine
 10
1579.13622
 20
550.64931
 30
0.0
 11
1597.66225
 21
550.64931
 31
0.0
  0
LINE
  5
4F4
330
A
100
AcDbEntity
  8
0
  6
DASHDOT
100
AcDbLine
 10
1616.14081
 20
525.89931
 30
0.0
 11
1577.58138
 21
525.89931
 31
0.0
  0
LINE
  5
4F5
330
A
100
AcDbEntity
  8
0
  6
DASHDOT
100
AcDbLine
 10
1578.40476
 20
523.0201400000001
 30
0.0
 11
1578.40476
 21
505.6269299999999
 31
0.0
  0
LINE
  5
4F6
330
A
100
AcDbEntity
  8
0
  6
DASHDOT
100
AcDbLine
 10
1607.10867
 20
488.1993099999999
 30
0.0
 11
1580.59915
 21
488.1993099999999
 31
0.0
  0
LINE
  5
4F7
330
A
100
AcDbEntity
  8
0
  6
DASHDOT
100
AcDbLine
 10
1588.40476
 20
501.43184
 30
0.0
 11
1588.40476
 21
524.52534
 31
0.0
  0
LINE
  5
4F8
330
A
100
AcDbEntity
  8
0
  6
DASHDOT
100
AcDbLine
 10
1538.40476
 20
523.0201400000001
 30
0.0
 11
1538.40476
 21
501.76279
 31
0.0
  0
LINE
  5
4F9
330
A
100
AcDbEntity
  8
0
  6
DOT
100
AcDbLine
 10
1601.90476
 20
518.9993099999999
 30
0.0
 11
1593.90476
 21
518.9993099999999
 31
0.0
  0
LINE
  5
4FA
330
A
100
AcDbEntity
  8
0
  6
DOT
100
AcDbLine
 10
1576.80476
 20
518.9993099999999
 30
0.0
 11
1582.90476
 21
518.9993099999999
 31
0.0
  0
LINE
  5
4FB
330
A
100
AcDbEntity
  8
0
  6
Continuous
100
AcDbLine
 10
1573.40476
 20
564.1993099999999
 30
0.0
 11
533.40477
 21
564.1993099999999
 31
0.0
  0
LINE
  5
4FC
330
A
100
AcDbEntity
  8
0
  6
Continuous
100
AcDbLine
 10
533.40477
 20
614.1993099999999
 30
0.0
 11
1573.40476
 21
614.1993099999999
 31
0.0
  0
LINE
  5
4FD
330
A
100
AcDbEntity
  8
0
  6
Continuous
100
AcDbLine
 10
668.4003299999999
 20
514.1993099999999
 30
0.0
 11
1573.40476
 21
514.1993099999999
 31
0.0
  0
LINE
  5
4FE
330
A
100
AcDbEntity
  8
0
  6
DASHDOT
100
AcDbLine
 10
729.1881799999999
 20
622.0583099999999
 30
0.0
 11
729.1881799999999
 21
737.53025
 31
0.0
  0
LINE
  5
4FF
330
A
100
AcDbEntity
  8
0
  6
DASHDOT
100
AcDbLine
 10
1377.62134
 20
622.0583099999999
 30
0.0
 11
1377.62134
 21
737.53025
 31
0.0
  0
LINE
  5
500
330
A
100
AcDbEntity
  8
0
  6
Continuous
100
AcDbLine
 10
734.18818
 20
663.1993099999999
 30
0.0
 11
734.18818
 21
732.4302499999999
 31
0.0
  0
LINE
  5
501
330
A
100
AcDbEntity
  8
0
  6
Continuous
100
AcDbLine
 10
724.1881799999999
 20
663.1993099999999
 30
0.0
 11
724.1881799999999
 21
732.4302499999999
 31
0.0
  0
LINE
  5
502
330
A
100
AcDbEntity
  8
0
  6
Continuous
100
AcDbLine
 10
1382.62134
 20
663.1993099999999
 30
0.0
 11
1382.62134
 21
732.4302499999999
 31
0.0
  0
LINE
  5
503
330
A
100
AcDbEntity
  8
0
  6
Continuous
100
AcDbLine
 10
1372.62134
 20
663.1993099999999
 30
0.0
 11
1372.62134
 21
732.4302499999999
 31
0.0
  0
LINE
  5
504
330
A
100
AcDbEntity
  8
0
  6
Continuous
100
AcDbLine
 10
725.1881799999999
 20
632.93746
 30
0.0
 11
725.1881799999999
 21
644.89931
 31
0.0
  0
LINE
  5
505
330
A
100
AcDbEntity
  8
0
  6
Continuous
100
AcDbLine
 10
724.1881799999999
 20
633.93746
 30
0.0
 11
734.18818
 21
633.93746
 31
0.0
  0
LINE
  5
506
330
A
100
AcDbEntity
  8
0
  6
Continuous
100
AcDbLine
 10
733.1881799999999
 20
632.93746
 30
0.0
 11
733.1881799999999
 21
644.89931
 31
0.0
  0
LINE
  5
507
330
A
100
AcDbEntity
  8
0
  6
Continuous
100
AcDbLine
 10
733.1881799999999
 20
663.1993099999999
 30
0.0
 11
733.1881799999999
 21
732.4302499999999
 31
0.0
  0
LINE
  5
508
330
A
100
AcDbEntity
  8
0
  6
Continuous
100
AcDbLine
 10
725.1881799999999
 20
663.1993099999999
 30
0.0
 11
725.1881799999999
 21
732.4302499999999
 31
0.0
  0
LINE
  5
509
330
A
100
AcDbEntity
  8
0
  6
Continuous
100
AcDbLine
 10
1373.62134
 20
632.93746
 30
0.0
 11
1373.62134
 21
644.89931
 31
0.0
  0
LINE
  5
50A
330
A
100
AcDbEntity
  8
0
  6
Continuous
100
AcDbLine
 10
1382.62134
 20
633.93746
 30
0.0
 11
1372.62134
 21
633.93746
 31
0.0
  0
LINE
  5
50B
330
A
100
AcDbEntity
  8
0
  6
Continuous
100
AcDbLine
 10
1381.62134
 20
632.93746
 30
0.0
 11
1381.62134
 21
644.89931
 31
0.0
  0
LINE
  5
50C
330
A
100
AcDbEntity
  8
0
  6
Continuous
100
AcDbLine
 10
1373.62134
 20
663.1993099999999
 30
0.0
 11
1373.62134
 21
732.4302499999999
 31
0.0
  0
LINE
  5
50D
330
A
100
AcDbEntity
  8
0
  6
Continuous
100
AcDbLine
 10
1381.62134
 20
663.1993099999999
 30
0.0
 11
1381.62134
 21
732.4302499999999
 31
0.0
  0
LINE
  5
50E
330
A
100
AcDbEntity
  8
0
  6
DOT
100
AcDbLine
 10
1986.8
 20
1333.232181
 30
0.0
 11
1986.8
 21
1354.930241
 31
0.0
  0
LINE
  5
50F
330
A
100
AcDbEntity
  8
0
  6
DOT
100
AcDbLine
 10
2001.1096
 20
1339.930301
 30
0.0
 11
1984.8
 21
1339.930301
 31
0.0
  0
LINE
  5
510
330
A
100
AcDbEntity
  8
0
  6
DOT
100
AcDbLine
 10
1984.8
 20
1339.930301
 30
0.0
 11
1984.8
 21
1346.649641
 31
0.0
  0
LINE
  5
511
330
A
100
AcDbEntity
  8
0
  6
DOT
100
AcDbLine
 10
2001.1096
 20
983.930301
 30
0.0
 11
1984.8
 21
983.930301
 31
0.0
  0
LINE
  5
512
330
A
100
AcDbEntity
  8
0
  6
DOT
100
AcDbLine
 10
1986.8
 20
990.628421
 30
0.0
 11
1986.8
 21
968.9303009999999
 31
0.0
  0
LINE
  5
513
330
A
100
AcDbEntity
  8
0
  6
DOT
100
AcDbLine
 10
1984.8
 20
983.930301
 30
0.0
 11
1984.8
 21
977.2109109999998
 31
0.0
  0
LINE
  5
514
330
A
100
AcDbEntity
  8
0
  6
DASHDOT
100
AcDbLine
 10
1980.5339
 20
973.4303009999999
 30
0.0
 11
1998.6143
 21
973.4303009999999
 31
0.0
  0
ARC
  5
515
330
A
100
AcDbEntity
  8
0
  6
Continuous
100
AcDbCircle
 10
493.90477
 20
505.44931
 30
0.0
 40
0.5
100
AcDbArc
 50
55.37155
 51
220.69243
  0
LINE
  5
516
330
A
100
AcDbEntity
  8
0
  6
Continuous
100
AcDbLine
 10
496.9085299999999
 20
501.1893099999999
 30
0.0
 11
493.5256599999999
 21
505.1233099999999
 31
0.0
  0
LINE
  5
517
330
A
100
AcDbEntity
  8
0
  6
Continuous
100
AcDbLine
 10
497.1222
 20
503.8350299999999
 30
0.0
 11
494.1888999999999
 21
505.86073
 31
0.0
  0
ARC
  5
518
330
A
100
AcDbEntity
  8
0
  6
Continuous
100
AcDbCircle
 10
499.9634599999999
 20
507.9493099999999
 30
0.0
 40
5.0
100
AcDbArc
 50
235.37155
 51
270.0
  0
ARC
  5
519
330
A
100
AcDbEntity
  8
0
  6
Continuous
100
AcDbCircle
 10
500.6996299999999
 20
504.4493099999999
 30
0.0
 40
5.0
100
AcDbArc
 50
220.69245
 51
270.0
  0
LINE
  5
51A
330
A
100
AcDbEntity
  8
0
  6
Continuous
100
AcDbLine
 10
499.9634599999999
 20
502.9493099999999
 30
0.0
 11
505.40477
 21
502.9493099999999
 31
0.0
  0
LINE
  5
51B
330
A
100
AcDbEntity
  8
0
  6
Continuous
100
AcDbLine
 10
505.40477
 20
499.4493099999999
 30
0.0
 11
500.6996299999999
 21
499.4493099999999
 31
0.0
  0
LINE
  5
51C
330
A
100
AcDbEntity
  8
0
  6
Continuous
100
AcDbLine
 10
509.90477
 20
505.1993099999999
 30
0.0
 11
509.90477
 21
497.1993099999999
 31
0.0
  0
LINE
  5
51D
330
A
100
AcDbEntity
  8
0
  6
Continuous
100
AcDbLine
 10
1609.68733
 20
503.8350299999999
 30
0.0
 11
1612.62063
 21
505.86073
 31
0.0
  0
LINE
  5
51E
330
A
100
AcDbEntity
  8
0
  6
Continuous
100
AcDbLine
 10
1609.901
 20
501.1893099999999
 30
0.0
 11
1613.28387
 21
505.1233099999999
 31
0.0
  0
ARC
  5
51F
330
A
100
AcDbEntity
  8
0
  6
Continuous
100
AcDbCircle
 10
1612.90476
 20
505.44931
 30
0.0
 40
0.5
100
AcDbArc
 50
319.30757
 51
124.62845
  0
ARC
  5
520
330
A
100
AcDbEntity
  8
0
  6
Continuous
100
AcDbCircle
 10
1606.1099
 20
504.4493099999999
 30
0.0
 40
5.0
100
AcDbArc
 50
270.0
 51
319.30754
  0
ARC
  5
521
330
A
100
AcDbEntity
  8
0
  6
Continuous
100
AcDbCircle
 10
1606.84607
 20
507.9493099999999
 30
0.0
 40
5.0
100
AcDbArc
 50
270.0
 51
304.62845
  0
LINE
  5
522
330
A
100
AcDbEntity
  8
0
  6
Continuous
100
AcDbLine
 10
1606.84607
 20
502.9493099999999
 30
0.0
 11
1601.40476
 21
502.9493099999999
 31
0.0
  0
LINE
  5
523
330
A
100
AcDbEntity
  8
0
  6
Continuous
100
AcDbLine
 10
1601.40476
 20
499.4493099999999
 30
0.0
 11
1606.1099
 21
499.4493099999999
 31
0.0
  0
LINE
  5
524
330
A
100
AcDbEntity
  8
0
  6
Continuous
100
AcDbLine
 10
1596.90476
 20
505.1993099999999
 30
0.0
 11
1596.90476
 21
497.1993099999999
 31
0.0
  0
ARC
  5
525
330
A
100
AcDbEntity
  8
0
  6
Continuous
100
AcDbCircle
 10
1999.75
 20
883.7251609999999
 30
0.0
 40
5.0
100
AcDbArc
 50
310.69245
 51
0.0
  0
ARC
  5
526
330
A
100
AcDbEntity
  8
0
  6
Continuous
100
AcDbCircle
 10
1996.25
 20
882.988991
 30
0.0
 40
5.0
100
AcDbArc
 50
325.37155
 51
0.0
  0
LINE
  5
527
330
A
100
AcDbEntity
  8
0
  6
Continuous
100
AcDbLine
 10
2000.3642
 20
880.147731
 30
0.0
 11
1998.3385
 21
877.2144310000001
 31
0.0
  0
LINE
  5
528
330
A
100
AcDbEntity
  8
0
  6
Continuous
100
AcDbLine
 10
2003.0099
 20
879.9340609999999
 30
0.0
 11
1999.076
 21
876.551191
 31
0.0
  0
ARC
  5
529
330
A
100
AcDbEntity
  8
0
  6
Continuous
100
AcDbCircle
 10
1998.75
 20
876.9303009999999
 30
0.0
 40
0.5
100
AcDbArc
 50
145.37155
 51
310.69243
  0
ARC
  5
52A
330
A
100
AcDbEntity
  8
0
  6
Continuous
100
AcDbCircle
 10
1999.75
 20
1440.135441
 30
0.0
 40
5.0
100
AcDbArc
 50
0.0
 51
49.307549
  0
ARC
  5
52B
330
A
100
AcDbEntity
  8
0
  6
Continuous
100
AcDbCircle
 10
1996.25
 20
1440.871541
 30
0.0
 40
5.0
100
AcDbArc
 50
0.0
 51
34.62845
  0
LINE
  5
52C
330
A
100
AcDbEntity
  8
0
  6
Continuous
100
AcDbLine
 10
2000.3642
 20
1443.712841
 30
0.0
 11
1998.3385
 21
1446.646141
 31
0.0
  0
LINE
  5
52D
330
A
100
AcDbEntity
  8
0
  6
Continuous
100
AcDbLine
 10
2003.0099
 20
1443.926541
 30
0.0
 11
1999.076
 21
1447.309341
 31
0.0
  0
ARC
  5
52E
330
A
100
AcDbEntity
  8
0
  6
Continuous
100
AcDbCircle
 10
1998.75
 20
1446.930241
 30
0.0
 40
0.5
100
AcDbArc
 50
49.30757
 51
214.62845
  0
LINE
  5
52F
330
A
100
AcDbEntity
  8
0
  6
DOT
100
AcDbLine
 10
2005.0
 20
1435.430241
 30
0.0
 11
2005.0
 21
1437.430241
 31
0.0
  0
LINE
  5
530
330
A
100
AcDbEntity
  8
0
  6
DOT
100
AcDbLine
 10
2005.0
 20
1435.430241
 30
0.0
 11
2007.0
 21
1435.430241
 31
0.0
  0
LINE
  5
531
330
A
100
AcDbEntity
  8
0
  6
DOT
100
AcDbLine
 10
2001.0
 20
1437.430241
 30
0.0
 11
2001.0
 21
1435.430241
 31
0.0
  0
LINE
  5
532
330
A
100
AcDbEntity
  8
0
  6
DOT
100
AcDbLine
 10
2001.0
 20
1435.430241
 30
0.0
 11
1999.0
 21
1435.430241
 31
0.0
  0
LINE
  5
533
330
A
100
AcDbEntity
  8
0
  6
DOT
100
AcDbLine
 10
1999.0
 20
1435.430241
 30
0.0
 11
1999.0
 21
1430.930241
 31
0.0
  0
LINE
  5
534
330
A
100
AcDbEntity
  8
0
  6
DOT
100
AcDbLine
 10
2007.0
 20
1430.930241
 30
0.0
 11
2007.0
 21
1435.430241
 31
0.0
  0
LINE
  5
535
330
A
100
AcDbEntity
  8
0
  6
DOT
100
AcDbLine
 10
1999.0
 20
1430.930241
 30
0.0
 11
1999.0
 21
1430.430241
 31
0.0
  0
LINE
  5
536
330
A
100
AcDbEntity
  8
0
  6
DOT
100
AcDbLine
 10
2007.0
 20
1430.930241
 30
0.0
 11
2007.0
 21
1430.430241
 31
0.0
  0
LINE
  5
537
330
A
100
AcDbEntity
  8
0
  6
DOT
100
AcDbLine
 10
2007.0
 20
1430.430241
 30
0.0
 11
1999.0
 21
1430.430241
 31
0.0
  0
LINE
  5
538
330
A
100
AcDbEntity
  8
0
  6
Continuous
100
AcDbLine
 10
2001.25
 20
1440.871541
 30
0.0
 11
2001.25
 21
1437.430241
 31
0.0
  0
LINE
  5
539
330
A
100
AcDbEntity
  8
0
  6
Continuous
100
AcDbLine
 10
2004.75
 20
1437.430241
 30
0.0
 11
2004.75
 21
1440.135441
 31
0.0
  0
LINE
  5
53A
330
A
100
AcDbEntity
  8
0
  6
Continuous
100
AcDbLine
 10
1990.0
 20
1437.430241
 30
0.0
 11
2009.0
 21
1437.430241
 31
0.0
  0
LINE
  5
53B
330
A
100
AcDbEntity
  8
0
  6
DOT
100
AcDbLine
 10
2005.0
 20
888.430301
 30
0.0
 11
2005.0
 21
886.430301
 31
0.0
  0
LINE
  5
53C
330
A
100
AcDbEntity
  8
0
  6
DOT
100
AcDbLine
 10
2005.0
 20
888.430301
 30
0.0
 11
2007.0
 21
888.430301
 31
0.0
  0
LINE
  5
53D
330
A
100
AcDbEntity
  8
0
  6
DOT
100
AcDbLine
 10
2001.0
 20
886.430301
 30
0.0
 11
2001.0
 21
888.430301
 31
0.0
  0
LINE
  5
53E
330
A
100
AcDbEntity
  8
0
  6
DOT
100
AcDbLine
 10
2001.0
 20
888.430301
 30
0.0
 11
1999.0
 21
888.430301
 31
0.0
  0
LINE
  5
53F
330
A
100
AcDbEntity
  8
0
  6
DOT
100
AcDbLine
 10
1999.0
 20
888.430301
 30
0.0
 11
1999.0
 21
892.9303009999999
 31
0.0
  0
LINE
  5
540
330
A
100
AcDbEntity
  8
0
  6
DOT
100
AcDbLine
 10
2007.0
 20
892.9303009999999
 30
0.0
 11
2007.0
 21
888.430301
 31
0.0
  0
LINE
  5
541
330
A
100
AcDbEntity
  8
0
  6
DOT
100
AcDbLine
 10
2007.0
 20
893.430301
 30
0.0
 11
1999.0
 21
893.430301
 31
0.0
  0
LINE
  5
542
330
A
100
AcDbEntity
  8
0
  6
DOT
100
AcDbLine
 10
1999.0
 20
892.9303009999999
 30
0.0
 11
1999.0
 21
893.430301
 31
0.0
  0
LINE
  5
543
330
A
100
AcDbEntity
  8
0
  6
DOT
100
AcDbLine
 10
2007.0
 20
892.9303009999999
 30
0.0
 11
2007.0
 21
893.430301
 31
0.0
  0
LINE
  5
544
330
A
100
AcDbEntity
  8
0
  6
Continuous
100
AcDbLine
 10
2001.25
 20
882.988991
 30
0.0
 11
2001.25
 21
886.430301
 31
0.0
  0
LINE
  5
545
330
A
100
AcDbEntity
  8
0
  6
Continuous
100
AcDbLine
 10
2004.75
 20
886.430301
 30
0.0
 11
2004.75
 21
883.7251609999999
 31
0.0
  0
LINE
  5
546
330
A
100
AcDbEntity
  8
0
  6
Continuous
100
AcDbLine
 10
1990.0
 20
886.430301
 30
0.0
 11
2009.0
 21
886.430301
 31
0.0
  0
LINE
  5
547
330
A
100
AcDbEntity
  8
0
  6
DASHDOT
100
AcDbLine
 10
518.4047699999999
 20
880.2170980000001
 30
0.0
 11
518.4047699999999
 21
1443.643444
 31
0.0
  0
LINE
  5
548
330
A
100
AcDbEntity
  8
0
  6
DASHDOT
100
AcDbLine
 10
497.191567
 20
1422.430241
 30
0.0
 11
1609.617963
 21
1422.430241
 31
0.0
  0
LINE
  5
549
330
A
100
AcDbEntity
  8
0
  6
DASHDOT
100
AcDbLine
 10
1588.40476
 20
880.2170980000001
 30
0.0
 11
1588.40476
 21
1443.643444
 31
0.0
  0
LINE
  5
54A
330
A
100
AcDbEntity
  8
0
  6
DASHDOT
100
AcDbLine
 10
497.191567
 20
901.430301
 30
0.0
 11
1609.617963
 21
901.430301
 31
0.0
  0
LINE
  5
54B
330
A
100
AcDbEntity
  8
0
  6
Continuous
100
AcDbLine
 10
2062.5
 20
886.430301
 30
0.0
 11
2142.4
 21
886.430301
 31
0.0
  0
LINE
  5
54C
330
A
100
AcDbEntity
  8
0
  6
Continuous
100
AcDbLine
 10
2062.5
 20
1437.430241
 30
0.0
 11
2142.4
 21
1437.430241
 31
0.0
  0
LINE
  5
54D
330
A
100
AcDbEntity
  8
0
  6
Continuous
100
AcDbLine
 10
2142.4
 20
886.430301
 30
0.0
 11
2142.4
 21
1437.430241
 31
0.0
  0
CIRCLE
  5
54E
330
A
100
AcDbEntity
  8
0
  6
Continuous
100
AcDbCircle
 10
2142.4
 20
886.430301
 30
0.0
 40
1.5
  0
CIRCLE
  5
54F
330
A
100
AcDbEntity
  8
0
  6
Continuous
100
AcDbCircle
 10
2142.4
 20
886.430301
 30
0.0
 40
0.75
  0
CIRCLE
  5
550
330
A
100
AcDbEntity
  8
0
  6
Continuous
100
AcDbCircle
 10
2142.4
 20
1437.430241
 30
0.0
 40
1.5
  0
CIRCLE
  5
551
330
A
100
AcDbEntity
  8
0
  6
Continuous
100
AcDbCircle
 10
2142.4
 20
1437.430241
 30
0.0
 40
0.75
  0
TEXT
  5
552
330
A
100
AcDbEntity
  8
0
  6
Continuous
100
AcDbText
 10
2142.1
 20
1155.930271
 30
0.0
 40
15.0
  1
Ｗ
 50
90.0
100
AcDbText
  0
LINE
  5
553
330
A
100
AcDbEntity
  8
0
  6
DASHDOT
100
AcDbLine
 10
555.7332179999999
 20
479.19931
 30
0.0
 11
581.067442
 21
479.19931
 31
0.0
  0
LINE
  5
554
330
A
100
AcDbEntity
  8
0
  6
DASHDOT
100
AcDbLine
 10
568.4003299999999
 20
491.866422
 30
0.0
 11
568.4003299999999
 21
466.532198
 31
0.0
  0
LINE
  5
555
330
A
100
AcDbEntity
  8
0
  6
DASHDOT
100
AcDbLine
 10
568.4003299999999
 20
521.66532
 30
0.0
 11
568.4003299999999
 21
504.66911
 31
0.0
  0
LINE
  5
556
330
A
100
AcDbEntity
  8
0
  6
Continuous
100
AcDbLine
 10
1890.0
 20
881.930301
 30
0.0
 11
1890.0
 21
832.2
 31
0.0
  0
LINE
  5
557
330
A
100
AcDbEntity
  8
0
  6
Continuous
100
AcDbLine
 10
1940.0
 20
881.930301
 30
0.0
 11
1940.0
 21
832.2
 31
0.0
  0
LINE
  5
558
330
A
100
AcDbEntity
  8
0
  6
Continuous
100
AcDbLine
 10
1890.0
 20
832.2
 30
0.0
 11
1940.0
 21
832.2
 31
0.0
  0
CIRCLE
  5
559
330
A
100
AcDbEntity
  8
0
  6
Continuous
100
AcDbCircle
 10
1890.0
 20
832.2
 30
0.0
 40
1.5
  0
CIRCLE
  5
55A
330
A
100
AcDbEntity
  8
0
  6
Continuous
100
AcDbCircle
 10
1890.0
 20
832.2
 30
0.0
 40
0.75
  0
CIRCLE
  5
55B
330
A
100
AcDbEntity
  8
0
  6
Continuous
100
AcDbCircle
 10
1940.0
 20
832.2
 30
0.0
 40
1.5
  0
CIRCLE
  5
55C
330
A
100
AcDbEntity
  8
0
  6
Continuous
100
AcDbCircle
 10
1940.0
 20
832.2
 30
0.0
 40
0.75
  0
TEXT
  5
55D
330
A
100
AcDbEntity
  8
0
  6
Continuous
100
AcDbText
 10
1904.964760601001
 20
833.8938890415825
 30
0.0
 40
15.0
  1
50
 41
0.8
100
AcDbText
  0
LINE
  5
55E
330
A
100
AcDbEntity
  8
0
  6
Continuous
100
AcDbLine
 10
1990.0
 20
881.930301
 30
0.0
 11
1990.0
 21
832.2
 31
0.0
  0
LINE
  5
55F
330
A
100
AcDbEntity
  8
0
  6
Continuous
100
AcDbLine
 10
1940.0
 20
832.2
 30
0.0
 11
1990.0
 21
832.2
 31
0.0
  0
CIRCLE
  5
560
330
A
100
AcDbEntity
  8
0
  6
Continuous
100
AcDbCircle
 10
1990.0
 20
832.2
 30
0.0
 40
1.5
  0
CIRCLE
  5
561
330
A
100
AcDbEntity
  8
0
  6
Continuous
100
AcDbCircle
 10
1990.0
 20
832.2
 30
0.0
 40
0.75
  0
TEXT
  5
562
330
A
100
AcDbEntity
  8
0
  6
Continuous
100
AcDbText
 10
1954.964760601001
 20
833.8938890415825
 30
0.0
 40
15.0
  1
50
 41
0.8
100
AcDbText
  0
LINE
  5
563
330
A
100
AcDbEntity
  8
0
  6
Continuous
100
AcDbLine
 10
2060.0
 20
883.930301
 30
0.0
 11
2060.0
 21
832.2
 31
0.0
  0
LINE
  5
564
330
A
100
AcDbEntity
  8
0
  6
Continuous
100
AcDbLine
 10
1990.0
 20
832.2
 30
0.0
 11
2060.0
 21
832.2
 31
0.0
  0
CIRCLE
  5
565
330
A
100
AcDbEntity
  8
0
  6
Continuous
100
AcDbCircle
 10
2060.0
 20
832.2
 30
0.0
 40
1.5
  0
CIRCLE
  5
566
330
A
100
AcDbEntity
  8
0
  6
Continuous
100
AcDbCircle
 10
2060.0
 20
832.2
 30
0.0
 40
0.75
  0
TEXT
  5
567
330
A
100
AcDbEntity
  8
0
  6
Continuous
100
AcDbText
 10
2014.964760601001
 20
833.8938890415825
 30
0.0
 40
15.0
  1
70
 41
0.8
100
AcDbText
  0
LINE
  5
568
330
A
100
AcDbEntity
  8
0
  6
Continuous
100
AcDbLine
 10
872.4922780998117
 20
227.4365301800953
 30
0.0
 11
1233.949658155206
 21
227.4365301800953
 31
0.0
  0
LINE
  5
569
330
A
100
AcDbEntity
  8
0
  6
Continuous
100
AcDbLine
 10
872.4922780998117
 20
195.9365301800953
 30
0.0
 11
1233.949658155206
 21
195.9365301800953
 31
0.0
  0
LINE
  5
56A
330
A
100
AcDbEntity
  8
0
  6
Continuous
100
AcDbLine
 10
872.4922780998117
 20
227.4365301800953
 30
0.0
 11
872.4922780998117
 21
195.9365301800953
 31
0.0
  0
LINE
  5
56B
330
A
100
AcDbEntity
  8
0
  6
Continuous
100
AcDbLine
 10
1233.949658155206
 20
227.4365301800953
 30
0.0
 11
1233.949658155206
 21
195.9365301800953
 31
0.0
  0
TEXT
  5
56C
330
A
100
AcDbEntity
  8
0
  6
Continuous
100
AcDbText
 10
881.9549718681203
 20
201.1865301800954
 30
0.0
 40
21.0
  1
ライトシェード　軸回転タイプ
100
AcDbText
  0
TEXT
  5
56D
330
A
100
AcDbEntity
  8
0
  6
Continuous
100
AcDbText
 10
534.1319266575443
 20
720.0951634801058
 30
0.0
 40
15.0
  1
吊りボルト　3/8Ｗ
100
AcDbText
  0
LEADER
  5
56E
330
A
100
AcDbEntity
  8
0
  6
Continuous
100
AcDbLeader
  3
STANDARD
 76
     3
 10
724.1881799999999
 20
686.7999999999999
 30
0.0
 10
706.694536
 20
717.0998799999999
 30
0.0
 10
525.2576900737968
 20
717.0998799999999
 30
0.0
1001
ACAD
1000
DSTYLE
1002
{
1070
    41
1040
6.0
1070
     5
1000
_EX_NORM
1070
     6
1000
_EX_NORM
1070
     7
1000
_EX_NORM
1002
}
  0
TEXT
  5
56F
330
A
100
AcDbEntity
  8
0
  6
Continuous
100
AcDbText
 10
535.466015728533
 20
699.321807743889
 30
0.0
 40
15.0
  1
（建築工事）
100
AcDbText
  0
LINE
  5
570
330
A
100
AcDbEntity
  8
0
  6
Continuous
100
AcDbLine
 10
1601.40476
 20
482.1993099999999
 30
0.0
 11
1601.40476
 21
494.1993099999999
 31
0.0
  0
LINE
  5
571
330
A
100
AcDbEntity
  8
0
  6
Continuous
100
AcDbLine
 10
1599.90476
 20
483.6993099999999
 30
0.0
 11
1599.90476
 21
492.6993099999999
 31
0.0
  0
LINE
  5
572
330
A
100
AcDbEntity
  8
0
  6
Continuous
100
AcDbLine
 10
1601.40476
 20
494.1993099999999
 30
0.0
 11
1589.40476
 21
494.1993099999999
 31
0.0
  0
LINE
  5
573
330
A
100
AcDbEntity
  8
0
  6
Continuous
100
AcDbLine
 10
1599.90476
 20
492.6993099999999
 30
0.0
 11
1590.90476
 21
492.6993099999999
 31
0.0
  0
LINE
  5
574
330
A
100
AcDbEntity
  8
0
  6
Continuous
100
AcDbLine
 10
1590.90476
 20
492.6993099999999
 30
0.0
 11
1590.90476
 21
483.6993099999999
 31
0.0
  0
LINE
  5
575
330
A
100
AcDbEntity
  8
0
  6
Continuous
100
AcDbLine
 10
1589.40476
 20
482.1993099999999
 30
0.0
 11
1601.40476
 21
482.1993099999999
 31
0.0
  0
LINE
  5
576
330
A
100
AcDbEntity
  8
0
  6
Continuous
100
AcDbLine
 10
1590.90476
 20
483.6993099999999
 30
0.0
 11
1599.90476
 21
483.6993099999999
 31
0.0
  0
ARC
  5
577
330
A
100
AcDbEntity
  8
0
  6
Continuous
100
AcDbCircle
 10
1598.23676
 20
488.1993099999999
 30
0.0
 40
5.667999999999999
100
AcDbArc
 50
303.98164
 51
56.01835300000001
  0
LINE
  5
578
330
A
100
AcDbEntity
  8
0
  6
Continuous
100
AcDbLine
 10
1585.40476
 20
490.1993099999999
 30
0.0
 11
1585.40476
 21
486.1993099999999
 31
0.0
  0
LINE
  5
579
330
A
100
AcDbEntity
  8
0
  6
DOT
100
AcDbLine
 10
1599.90476
 20
486.1993099999999
 30
0.0
 11
1601.40476
 21
486.1993099999999
 31
0.0
  0
LINE
  5
57A
330
A
100
AcDbEntity
  8
0
  6
DOT
100
AcDbLine
 10
1599.90476
 20
490.1993099999999
 30
0.0
 11
1601.40476
 21
490.1993099999999
 31
0.0
  0
LINE
  5
57B
330
A
100
AcDbEntity
  8
0
  6
Continuous
100
AcDbLine
 10
1588.40476
 20
494.1993099999999
 30
0.0
 11
1588.40476
 21
482.1993099999999
 31
0.0
  0
LINE
  5
57C
330
A
100
AcDbEntity
  8
0
  6
Continuous
100
AcDbLine
 10
1589.40476
 20
482.1993099999999
 30
0.0
 11
1589.40476
 21
494.1993099999999
 31
0.0
  0
LINE
  5
57D
330
A
100
AcDbEntity
  8
0
  6
Continuous
100
AcDbLine
 10
1585.40476
 20
486.1993099999999
 30
0.0
 11
1588.40476
 21
486.1993099999999
 31
0.0
  0
LINE
  5
57E
330
A
100
AcDbEntity
  8
0
  6
Continuous
100
AcDbLine
 10
1588.40476
 20
490.1993099999999
 30
0.0
 11
1585.40476
 21
490.1993099999999
 31
0.0
  0
LINE
  5
57F
330
A
100
AcDbEntity
  8
0
  6
Continuous
100
AcDbLine
 10
1589.40476
 20
486.1993099999999
 30
0.0
 11
1599.90476
 21
486.1993099999999
 31
0.0
  0
LINE
  5
580
330
A
100
AcDbEntity
  8
0
  6
Continuous
100
AcDbLine
 10
1599.90476
 20
490.1993099999999
 30
0.0
 11
1589.40476
 21
490.1993099999999
 31
0.0
  0
LINE
  5
581
330
A
100
AcDbEntity
  8
0
  6
DOT
100
AcDbLine
 10
1588.40476
 20
490.1993099999999
 30
0.0
 11
1589.40476
 21
490.1993099999999
 31
0.0
  0
LINE
  5
582
330
A
100
AcDbEntity
  8
0
  6
DOT
100
AcDbLine
 10
1588.40476
 20
486.1993099999999
 30
0.0
 11
1589.40476
 21
486.1993099999999
 31
0.0
  0
LINE
  5
583
330
A
100
AcDbEntity
  8
0
  6
Continuous
100
AcDbLine
 10
521.40477
 20
490.1993099999999
 30
0.0
 11
521.40477
 21
486.1993099999999
 31
0.0
  0
ARC
  5
584
330
A
100
AcDbEntity
  8
0
  6
Continuous
100
AcDbCircle
 10
508.5727699999999
 20
488.1993099999999
 30
0.0
 40
5.667999999999999
100
AcDbArc
 50
123.98164
 51
236.01835
  0
LINE
  5
585
330
A
100
AcDbEntity
  8
0
  6
Continuous
100
AcDbLine
 10
515.90477
 20
483.6993099999999
 30
0.0
 11
506.90477
 21
483.6993099999999
 31
0.0
  0
LINE
  5
586
330
A
100
AcDbEntity
  8
0
  6
Continuous
100
AcDbLine
 10
517.40477
 20
482.1993099999999
 30
0.0
 11
505.40477
 21
482.1993099999999
 31
0.0
  0
LINE
  5
587
330
A
100
AcDbEntity
  8
0
  6
Continuous
100
AcDbLine
 10
515.90477
 20
492.6993099999999
 30
0.0
 11
515.90477
 21
483.6993099999999
 31
0.0
  0
LINE
  5
588
330
A
100
AcDbEntity
  8
0
  6
Continuous
100
AcDbLine
 10
506.90477
 20
492.6993099999999
 30
0.0
 11
515.90477
 21
492.6993099999999
 31
0.0
  0
LINE
  5
589
330
A
100
AcDbEntity
  8
0
  6
Continuous
100
AcDbLine
 10
505.40477
 20
494.1993099999999
 30
0.0
 11
517.40477
 21
494.1993099999999
 31
0.0
  0
LINE
  5
58A
330
A
100
AcDbEntity
  8
0
  6
Continuous
100
AcDbLine
 10
506.90477
 20
483.6993099999999
 30
0.0
 11
506.90477
 21
492.6993099999999
 31
0.0
  0
LINE
  5
58B
330
A
100
AcDbEntity
  8
0
  6
Continuous
100
AcDbLine
 10
505.40477
 20
482.1993099999999
 30
0.0
 11
505.40477
 21
494.1993099999999
 31
0.0
  0
LINE
  5
58C
330
A
100
AcDbEntity
  8
0
  6
Continuous
100
AcDbLine
 10
517.40477
 20
494.1993099999999
 30
0.0
 11
517.40477
 21
482.1993099999999
 31
0.0
  0
LINE
  5
58D
330
A
100
AcDbEntity
  8
0
  6
Continuous
100
AcDbLine
 10
506.90477
 20
490.1993099999999
 30
0.0
 11
515.90477
 21
490.1993099999999
 31
0.0
  0
LINE
  5
58E
330
A
100
AcDbEntity
  8
0
  6
Continuous
100
AcDbLine
 10
515.90477
 20
486.1993099999999
 30
0.0
 11
506.90477
 21
486.1993099999999
 31
0.0
  0
LINE
  5
58F
330
A
100
AcDbEntity
  8
0
  6
DOT
100
AcDbLine
 10
506.90477
 20
490.1993099999999
 30
0.0
 11
505.40477
 21
490.1993099999999
 31
0.0
  0
LINE
  5
590
330
A
100
AcDbEntity
  8
0
  6
DOT
100
AcDbLine
 10
506.90477
 20
486.1993099999999
 30
0.0
 11
505.40477
 21
486.1993099999999
 31
0.0
  0
LINE
  5
591
330
A
100
AcDbEntity
  8
0
  6
Continuous
100
AcDbLine
 10
518.4047699999999
 20
482.1993099999999
 30
0.0
 11
518.4047699999999
 21
494.1993099999999
 31
0.0
  0
LINE
  5
592
330
A
100
AcDbEntity
  8
0
  6
Continuous
100
AcDbLine
 10
518.4047699999999
 20
490.1993099999999
 30
0.0
 11
521.40477
 21
490.1993099999999
 31
0.0
  0
LINE
  5
593
330
A
100
AcDbEntity
  8
0
  6
Continuous
100
AcDbLine
 10
521.40477
 20
486.1993099999999
 30
0.0
 11
518.4047699999999
 21
486.1993099999999
 31
0.0
  0
LINE
  5
594
330
A
100
AcDbEntity
  8
0
  6
DOT
100
AcDbLine
 10
515.90477
 20
486.1993099999999
 30
0.0
 11
518.4047699999999
 21
486.1993099999999
 31
0.0
  0
LINE
  5
595
330
A
100
AcDbEntity
  8
0
  6
DOT
100
AcDbLine
 10
515.90477
 20
490.1993099999999
 30
0.0
 11
518.4047699999999
 21
490.1993099999999
 31
0.0
  0
LINE
  5
596
330
A
100
AcDbEntity
  8
0
  6
DIVIDE
100
AcDbLine
 10
1588.90476
 20
494.1993099999999
 30
0.0
 11
1588.90476
 21
482.1993099999999
 31
0.0
  0
ARC
  5
597
330
A
100
AcDbEntity
  8
0
  6
DIVIDE
100
AcDbCircle
 10
1589.40476
 20
482.1993099999999
 30
0.0
 40
0.5
100
AcDbArc
 50
180.0
 51
270.0
  0
LINE
  5
598
330
A
100
AcDbEntity
  8
0
  6
DIVIDE
100
AcDbLine
 10
1603.90476
 20
481.6993099999999
 30
0.0
 11
1589.40476
 21
481.6993099999999
 31
0.0
  0
ARC
  5
599
330
A
100
AcDbEntity
  8
0
  6
DIVIDE
100
AcDbCircle
 10
1601.40476
 20
446.1993099999999
 30
0.0
 40
2.5
100
AcDbArc
 50
270.0
 51
0.0
  0
LINE
  5
59A
330
A
100
AcDbEntity
  8
0
  6
DIVIDE
100
AcDbLine
 10
1603.90476
 20
481.6993099999999
 30
0.0
 11
1603.90476
 21
446.1993099999999
 31
0.0
  0
ARC
  5
59B
330
A
100
AcDbEntity
  8
0
  6
DIVIDE
100
AcDbCircle
 10
505.40477
 20
446.1993099999999
 30
0.0
 40
2.5
100
AcDbArc
 50
180.0
 51
270.0
  0
LINE
  5
59C
330
A
100
AcDbEntity
  8
0
  6
DIVIDE
100
AcDbLine
 10
1601.40476
 20
443.6993099999999
 30
0.0
 11
505.40477
 21
443.6993099999999
 31
0.0
  0
ARC
  5
59D
330
A
100
AcDbEntity
  8
0
  6
DIVIDE
100
AcDbCircle
 10
517.40477
 20
482.1993099999999
 30
0.0
 40
0.5
100
AcDbArc
 50
270.0
 51
0.0
  0
LINE
  5
59E
330
A
100
AcDbEntity
  8
0
  6
DIVIDE
100
AcDbLine
 10
517.9047699999999
 20
482.1993099999999
 30
0.0
 11
517.9047699999999
 21
494.1993099999999
 31
0.0
  0
LINE
  5
59F
330
A
100
AcDbEntity
  8
0
  6
DIVIDE
100
AcDbLine
 10
502.90477
 20
481.6993099999999
 30
0.0
 11
517.40477
 21
481.6993099999999
 31
0.0
  0
LINE
  5
5A0
330
A
100
AcDbEntity
  8
0
  6
DIVIDE
100
AcDbLine
 10
502.90477
 20
481.6993099999999
 30
0.0
 11
502.90477
 21
446.1993099999999
 31
0.0
  0
TEXT
  5
5A1
330
A
100
AcDbEntity
  8
0
  6
Continuous
100
AcDbText
 10
437.5291478363516
 20
643.8995352022914
 30
0.0
 40
15.0
  1
上枠
100
AcDbText
  0
LEADER
  5
5A2
330
A
100
AcDbEntity
  8
0
  6
Continuous
100
AcDbLeader
  3
STANDARD
 76
     3
 10
503.40477
 20
591.2999999999999
 30
0.0
 10
474.8877499999999
 20
640.6929269999999
 30
0.0
 10
430.1999999999999
 20
640.6929269999999
 30
0.0
1001
ACAD
1000
DSTYLE
1002
{
1070
    41
1040
6.0
1070
     5
1000
_EX_NORM
1070
     6
1000
_EX_NORM
1070
     7
1000
_EX_NORM
1002
}
  0
TEXT
  5
5A3
330
A
100
AcDbEntity
  8
0
  6
Continuous
100
AcDbText
 10
1871.904990319065
 20
1465.315236292584
 30
0.0
 40
15.0
  1
上枠
100
AcDbText
  0
LEADER
  5
5A4
330
A
100
AcDbEntity
  8
0
  6
Continuous
100
AcDbLeader
  3
STANDARD
 76
     3
 10
1919.9
 20
1437.430241
 30
0.0
 10
1904.983134162148
 20
1463.26701
 30
0.0
 10
1867.241767162148
 20
1463.26701
 30
0.0
1001
ACAD
1000
DSTYLE
1002
{
1070
    41
1040
6.0
1070
     5
1000
_EX_NORM
1070
     6
1000
_EX_NORM
1070
     7
1000
_EX_NORM
1002
}
  0
LEADER
  5
5BD
330
A
100
AcDbEntity
  8
0
  6
Continuous
100
AcDbLeader
  3
STANDARD
 76
     3
 10
975.8227600789432
 20
547.6834986359075
 30
0.0
 10
1030.761502582791
 20
642.840191883358
 30
0.0
 10
1218.066864327512
 20
642.840191883358
 30
0.0
1001
ACAD
1000
DSTYLE
1002
{
1070
    41
1040
6.0
1070
     5
1000
_EX_NORM
1070
     6
1000
_EX_NORM
1070
     7
1000
_EX_NORM
1002
}
  0
ENDSEC
  0
SECTION
  2
OBJECTS
  0
DICTIONARY
  5
19
330
0
100
AcDbDictionary
281
     1
  3
ACAD_COLOR
350
5AE
  3
ACAD_GROUP
350
1A
  3
ACAD_LAYOUT
350
5AF
  3
ACAD_MATERIAL
350
5AD
  3
ACAD_MLINESTYLE
350
1B
  3
ACAD_PLOTSETTINGS
350
5B0
  3
ACAD_PLOTSTYLENAME
350
5AB
  3
ACDBHEADERROUNDTRIPXREC
350
5FD
  3
AcDbVariableDictionary
350
5F9
  3
ASE_INDEX_DICTIONARY
350
5B7
  0
DICTIONARY
  5
5AE
102
{ACAD_REACTORS
330
19
102
}
330
19
100
AcDbDictionary
281
     1
  0
DICTIONARY
  5
1A
102
{ACAD_REACTORS
330
19
102
}
330
19
100
AcDbDictionary
281
     1
  0
DICTIONARY
  5
5AF
102
{ACAD_REACTORS
330
19
102
}
330
19
100
AcDbDictionary
281
     1
  3
Model
350
5B1
  3
レイアウト1
350
5B2
  0
DICTIONARY
  5
5AD
102
{ACAD_REACTORS
330
19
102
}
330
19
100
AcDbDictionary
281
     1
  0
DICTIONARY
  5
1B
102
{ACAD_REACTORS
330
19
102
}
330
19
100
AcDbDictionary
281
     1
  3
STANDARD
350
1C
  0
DICTIONARY
  5
5B0
102
{ACAD_REACTORS
330
19
102
}
330
19
100
AcDbDictionary
281
     1
  0
ACDBDICTIONARYWDFLT
  5
5AB
102
{ACAD_REACTORS
330
19
102
}
330
19
100
AcDbDictionary
281
     1
  3
Normal
350
5AC
100
AcDbDictionaryWithDefault
340
5AC
  0
DICTIONARY
  5
5FD
102
{ACAD_REACTORS
330
19
102
}
330
19
100
AcDbDictionary
281
     1
  3
COLORDICT
350
5FF
  3
MATERIALDICT
350
5FE
  0
DICTIONARY
  5
5F9
102
{ACAD_REACTORS
330
19
102
}
330
19
100
AcDbDictionary
281
     1
  3
DIMASSOC
350
5FA
  3
PROJECTNAME
350
5FB
  0
DICTIONARY
  5
5B7
102
{ACAD_REACTORS
330
19
102
}
330
19
100
AcDbDictionary
281
     1
  3
ASEBlockHierarchyIndexRecord
350
5B9
1001
DCO15
1040
1512373261.48
  0
LAYOUT
  5
5B1
102
{ACAD_XDICTIONARY
360
600
102
}
102
{ACAD_REACTORS
330
5AF
102
}
330
5AF
100
AcDbPlotSettings
  1

  2
none_device
  4
Letter_(8.50_x_11.00_Inches)
  6

 40
6.349999904632568
 41
6.349999904632568
 42
6.350006103515625
 43
6.350006103515625
 44
215.8999938964844
 45
279.3999938964844
 46
0.0
 47
0.0
 48
0.0
 49
0.0
140
0.0
141
0.0
142
1.0
143
1.0
 70
 11952
 72
     0
 73
     1
 74
     0
  7

 75
     0
147
1.0
148
-11430.1592718538
149
3015.248421110058
100
AcDbLayout
  1
Model
 70
     1
 71
     0
 10
0.0
 20
0.0
 11
12.0
 21
9.0
 12
0.0
 22
0.0
 32
0.0
 14
0.0
 24
0.0
 34
0.0
 15
0.0
 25
0.0
 35
0.0
146
0.0
 13
0.0
 23
0.0
 33
0.0
 16
1.0
 26
0.0
 36
0.0
 17
0.0
 27
1.0
 37
0.0
 76
     0
330
A
  0
LAYOUT
  5
5B2
102
{ACAD_XDICTIONARY
360
602
102
}
102
{ACAD_REACTORS
330
5AF
102
}
330
5AF
100
AcDbPlotSettings
  1

  2
\\NTKD30-SV251\NTKD30-PR216-1
  4

  6

 40
0.0
 41
0.0
 42
0.0
 43
0.0
 44
0.0
 45
0.0
 46
0.0
 47
0.0
 48
0.0
 49
0.0
140
0.0
141
0.0
142
1.0
143
1.0
 70
   688
 72
     0
 73
     0
 74
     5
  7

 75
    16
147
1.0
148
0.0
149
0.0
100
AcDbLayout
  1
レイアウト1
 70
     0
 71
     1
 10
0.0
 20
0.0
 11
12.0
 21
9.0
 12
0.0
 22
0.0
 32
0.0
 14
1.000000000000000E+20
 24
1.000000000000000E+20
 34
1.000000000000000E+20
 15
-1.000000000000000E+20
 25
-1.000000000000000E+20
 35
-1.000000000000000E+20
146
0.0
 13
0.0
 23
0.0
 33
0.0
 16
1.0
 26
0.0
 36
0.0
 17
0.0
 27
1.0
 37
0.0
 76
     0
330
B
  0
MLINESTYLE
  5
1C
102
{ACAD_REACTORS
330
1B
102
}
330
1B
100
AcDbMlineStyle
  2
STANDARD
 70
     0
  3

 62
     0
 51
90.0
 52
90.0
 71
     2
 49
0.5
 62
   256
  6
BYLAYER
 49
-0.5
 62
   256
  6
BYLAYER
  0
ACDBPLACEHOLDER
  5
5AC
102
{ACAD_REACTORS
330
5AB
102
}
330
5AB
  0
XRECORD
  5
5FF
102
{ACAD_REACTORS
330
5FD
102
}
330
5FD
100
AcDbXrecord
280
     1
340
5AE
  0
XRECORD
  5
5FE
102
{ACAD_REACTORS
330
5FD
102
}
330
5FD
100
AcDbXrecord
280
     1
340
5AD
  0
DICTIONARYVAR
  5
5FA
102
{ACAD_REACTORS
330
5F9
102
}
330
5F9
100
DictionaryVariables
280
     0
  1
1
  0
DICTIONARYVAR
  5
5FB
102
{ACAD_REACTORS
330
5F9
102
}
330
5F9
100
DictionaryVariables
280
     0
  1

  0
XRECORD
  5
5B9
102
{ACAD_REACTORS
330
5B7
102
}
330
5B7
100
AcDbXrecord
280
     1
  0
DICTIONARY
  5
600
330
5B1
100
AcDbDictionary
280
     1
281
     1
  3
ACAD_XREC_ROUNDTRIP
360
601
  0
DICTIONARY
  5
602
330
5B2
100
AcDbDictionary
280
     1
281
     1
  3
ACAD_XREC_ROUNDTRIP
360
603
  0
XRECORD
  5
601
102
{ACAD_REACTORS
330
600
102
}
330
600
100
AcDbXrecord
280
     1
102
SHADEPLOT
 70
     0
102
SHADEPLOTRESLEVEL
 70
     2
102
SHADEPLOTCUSTOMDPI
 70
   300
  0
XRECORD
  5
603
102
{ACAD_REACTORS
330
602
102
}
330
602
100
AcDbXrecord
280
     1
102
SHADEPLOT
 70
     0
102
SHADEPLOTRESLEVEL
 70
     2
102
SHADEPLOTCUSTOMDPI
 70
   300
  0
ENDSEC
  0
EOF
